Taproot - Whats Left Chords & Tabs

 

Whats Left Chords & Tabs

Taproot Chords & Tabs

Version: 1 Type: Bass Tab

Whats Left Bass Tab

   
Taproot - What's left

bass tab

by : doky 2006
taquilleros_de_sudamerica_maroyu_el_grupo_tropical_del_momento@hotmail.com

5-stringed bass
G D A E B

A.
|----------------|
|----------------|
|----------------|
|-6h8-9p8-6h8-88-|
|----------------|

B. 
|-----------------|
|-----------------|
|---7h9-7-868-646-|
|--9--------------|
|-7---------------|

B-1.
|---------------|
|---------------|
|---797-868-646-|
|--9------------|
|-7-------------|

B-2.
|----------------|
|----------------|
|---9--8----6----|
|--9-------------|
|-7--7--666--444-|

C.
|---------------------------|--------------------------------|
|---------------------------|---------------11-9-------------|
|---------------------------|-------------------13-11---986--|
|-11^v--11^v15--11^v--11^v--|-9^v--9^v--9^v----------------9-|
|---------------------------|--------------------------------|
[ Tab from: http://www.guitartabs.cc/tabs/t/taproot/whats_left_btab.html ]
D.
|----------------------|-----------------|
|----------------------|-----------------|
|-11-11-98-------------|-13-13-13\-------|
|---------666666-------|-----------------|
|---------------666666-|----------444444-|

D-1.
|----------------------|-----------------------|
|----------------------|-----------------------|
|-11-11-98-------------|-13-13-13\-------------|
|---------666666-------|-----------------------|
|---------------666666-|----------444444666666-|

D-2.
|-------------------------|
|-------------------------|
|-11-11-98----------------|
|---------666666----------|
|---------------6------\0-|

E.
|---------------|
|---------------|
|---------------|
|-11^v-11^v-9-9-|
|---------------|

F.
|--------------------------------|
|--------------------------------|
|--------------------------------|
|-8888-9-9-10-10-11-11-10-10-9-9-|
|--------------------------------|

bueno tanto tab que hay, voy a contar un chiste...
pregunta: haber di 1
respuesta: 1
le contesta: tu viejo es arquero.... uuuthaaaaaa