Taproot - Time Chords & Tabs

 

Time Chords & Tabs

Taproot Chords & Tabs

Version: 1 Type: Tab 0 ratings
1 star 2 stars 3 stars 4 stars 5 stars
comments

Time Tab

Band- Taproot
Song- Time

Intro:
|---------------------------------------------------------------|
|---------------------------------------------------------------|
|---------------------------------------------------------------|
|------------------------------6-6------------------------------|
|---------------------------------------------------------------|
|--5-5-7-7-5-5-7-7-5-5-7-7-5-5----------------------------------|

Intro 2:
|---------------------------------------------------------------|
|---------------------------------------------------------------|
|---------------------------------------------------------------|
|--5-5-8-8-8--5-5-8---------------------------------------------|
|--5-5-5-5-5--5-5-5---------------------------------------------|
|--5-5-5-5-5--5-5-5---------------------------------------------|

Verse:
|---------------------------------------------------------------|
|---------------------------------------------------------------|
|---------------------------------------------------------------|
|--5-5-8-8-8--5-5-8------5-5-8-8-8--5-5-------------------------|
|--5-5-5-5-5--5-5-5-(3x)-5-5-5-5-5--5-5-------------------------|
|--5-5-5-5-5--5-5-5------5-5-5-5-5--5-5-------------------------|
[ Tab from: http://www.guitartabs.cc/tabs/t/taproot/time_tab.html ]
Chorus:
|---------------------------------------------------------------|
|---------------------------------------------------------------|
|------------------7-7-7-8-8------------------------------------|
|--3/888-5-5-3/888-7-7-7-8-8-3/888-5-5-3/888-8-8-8-8------------|
|--3/888-5-5-3/888-5-5-5-6-6-3/888-5-5-3/888-8-8-8-8------------|
|--3/888-5-5-3/888-----------3/888-5-5-3/888-8-8-8-8------------|

End of chorus 2:
|---------------------------------------------------------------|
|---------------------------------------------------------------|
|---------------------------------------------------------------|
|--3--8--5------------------------------------------------------|
|--3--8--5-let-ring---------------------------------------------|
|--3--8--5------------------------------------------------------|

Bridge:
|---------------------------------------------------------------|
|---------------------------------------------------------------|
|---------------------------------------------------------------|
|---------------------------------------------------------------|
|----------------------4*4*4*-----------------------------------|
|--65565565000-65565565-------65565565000-655655650-0-0---------|

Bridge 2:
|---------------------------------------------------------------|
|---------------------------------------------------------------|
|---------------------------------------------------------------|
|--------------------------------------666-66-666-66-666-66-----|
|--------------------------------------666-66-666-66-666-66-----|
|--65565565-65565565-65565565-65565565--------------------------|

End:
|---------------------------------------------------------------|
|---------------------------------------------------------------|
|---------------------------------------------------------------|
|---------------------------------------------------------------|
|---------------------------------------------------------------|
|--655665-655665-655665-(pause)-655665--------------------------|
Comments