Taproot - Promise Chords & Tabs

 

Promise Chords & Tabs

Taproot Chords & Tabs

Version: 1 Type: Bass Tab

Promise Bass Tab

   
Taproot - Promise

bass tab

by : doky 2006
taquilleros_de_sudamerica_maroyu_el_grupo_tropical_del_momento@hotmail.com

5-stringed bass
G D A E B

intro
|------------------------------|
|-------------35------------1--|
|-666666666666--333333333333-1-|
|------------------------------|
|------------------------------|

|------------------------------|
|-------------35----------1--0-|
|-666666666666--3333333333-13--|
|------------------------------|
|------------------------------|

coro
|------------------------------------------------------------|
|------------------------------------------------------------|
|------------------------------------------------------------|
|-33333333-44446666-44444444-6666-33333333-44446666----------|
|---------------------------------------------------999999\0-|

coro 2
|------------------------------------------------------------|
|------------------------------------------------------------|
|------------------------------------------------------------|
|-33333333-44446666-44444444-6666-33333333-44446666-66666666-|
|------------------------------------------------------------|
[ Tab from: http://www.guitartabs.cc/tabs/t/taproot/promise_btab.html ]
middle
|--------------------------------|
|--------------------------------|
|--------------------------------|
|----------4444/1111\333/444-4---|
|-1111/4444-----------------6----|

|---------------------|---------------------------|
|---------------------|---------------------------|
|-----------3---------|---------6/86----3----6----|
|-3----4---------4----|-3----6------86------------|
|---------------------|---------------------------|

fin
|---------------------------------|-------------------------------|
|---------------------------------|-------------------------------|
|------------------------33333333-|-------------------------------|
|----------4444\3333/4444---------|-11111111-33333333-44-44-44-44-|
|-1111/4444-----------------------|-------------------------------|

|--------------------|
|--------------------|
|--------------------|
|-3----6----8--------|
|--------------------|

esta cancion es medio rara pues, entonces hay que ubicar los tiempos que se tocan, eso.
ademas ma-mando un saluto a los malafachas forever del institute americans, a los que
estaban en la banda y se los ponia siempre en su cilindrico: malafachas forever 1998 -
2004. al cholas, al choco, al lobo, utha no me recuerdo pero a los estes pues.