Taproot - Poem Chords & Tabs

 

Poem Chords & Tabs

Taproot Chords & Tabs

Version: 22 Type: Tab 0 ratings
1 star 2 stars 3 stars 4 stars 5 stars
comments

Poem Tab

-------------------------------------------------------------------------------
			     Poem - Taproot
-------------------------------------------------------------------------------
  This Tab is Pretty Much how Mike DeWolf of Taproot plays it...he doesn't use
those power chords that every other tab is using. Watch the video on the
CD.....you can see!!!! Its not exact but Taproot uses 2 guitars!!!!!! 

Tabbed by:cTAPROOTr
Email:don't email me
[ Tab from: http://www.guitartabs.cc/tabs/t/taproot/poem_tab_ver_22.html ]
Tuning: Drop A
           [Intro :Clean]
a|-x--xxx-x--xxx-xx-x---x--x-x-x-xxx-|
E|-7--77x-5--555-xx-10--10-10x-7-777-|
B|-6--66x-7--777-xx-9---9--9-x-9-999-|
G|-4--44x-7--777-xx-7---7--7-x-9-999-| repeat and play to the ^. then
D|-4--44x-5--555-xx-7---7--7-x-7-777-|
A|-x--xxx-x--xxx-xx-x---x--x-x-x-xxx-|
                   ^
 [INTRO part 2:distortion]
|-x-x-xx-x-x-x--xx--x--x-----|
|-5/7-77-x-5/7--77/-10-10----|
|-7/9-99-x-7/9--99/-12-12----|
|-7/9-99-x-7/9--99/-12-12----|
|-5/7-77-x-5/7--77/-10-10----|
|-x-x-xx-x-x-x--xx--x--x-----|
   [Heavy Part]     *****
|------------------|
|------------------|
|------------------|
|--4--4x4--4x4/55--|play 4x 
|--4--4x4--4x4/55--|
|--0h22x0h22x2/33--|
        [verse]
|-x-x--x--x-x-x-x--x--x-xx--x--x--|
|-7/9--9--9-x-7/9--9--9-x9-/10-10-|
|-9/11-11-11x-9/11-11-11x11/12-12-|
|-9/11-11-11x-9/11-11-11x11/12-12-|  play x4
|-7/9--9--9-x-7/9--9--9-x9-/10-10-|
|-x-x--x--x-x-x-x--x--x-xx--x--x--|
           
[Chorus]           Break                                 [         1st end  ]  2nd end
|-x--xxx-x--xxx-xx-x---x--x-x-x-xxx-xx-x--xxx-x--xxx-xx--x-x-xx-x-x-x--xx--x-|
|-7--77x-5--555-xx-10--10-10x-7-777-xx-7--77x-5--555-xx--5/7-77-x-5/7--77/-8-|
|-6--66x-7--777-xx-9---9--9-x-9-999-xx-6--66x-7--777-xx--7/9-99-x-7/9--99/-10|
|-4--44x-7--777-xx-7---7--7-x-9-999-xx-4--44x-7--777-xx--7/9-99-x-7/9--99/-10|
|-4--44x-5--555-xx-7---7--7-x-7-777-xx-4--44x-5--555-xx--5/7-77-x-5/7--77/-8-|
|-x--xxx-x--xxx-xx-x---x--x-x-x-xxx-xx-x--xxx-x--xxx-xx--x-x-xx-x-x-x--xx--x-|
                                                                             ^
                            repeat to ^ then on 2nd time through play 1st ending and 2nd ending
[2nd ending]
|x-x-x--xx--x-----|
|x-5/7--77/-10----|
|x-7/9--99/-12----|
|x-7/9--99/-12----|
|x-5/7--77/-10----|
|x-x-x--xx--x-----|
          [Interlude]
|-----------------------------|
|-----------------------------|
|-----------------------------|
|--4--4---4--4---4--4---------|
|--4--4---4--4---4--4---BREAK!|
|--0h22---0h22---0h22---------|
  [ending]
|-----|
|-----|
|-----|
|-4444|
|-4444|
|-2222|
Structure: Intro
Intro Pt. 2
Heavy Part
Intro Pt.2
Verse
Heavy part
Chorus
Verse
Heavy part
Chorus 1st end only
Chorus
Interlude
Heavy part (6x)
Interlude again only add a 4th, one stroke longer riff.
Chorus (clean, on 2nd time through add distortion on Break and dont play 2nd ending)
Chorus
Chorus(on 2nd time through play 1st ending 3 times and dont play 2nd ending at
all)
Ending
Comments