Taproot - Poem Chords & Tabs

 

Poem Chords & Tabs

Taproot Chords & Tabs

Version: 15 Type: Tab 0 ratings
1 star 2 stars 3 stars 4 stars 5 stars
comments

Poem Tab

alright heres taproots new song off their album welcome, its a tight ass song so
i decided to tab it, i assure you this is correct.

Song: Poem
Artist: Taproot
Album: Welcome
Tabber: MutaviMulac77@aol.com

Regular Tuning: (EADGBE) low to high
Intro: Clean                                    
E|------------------------------------------------------------------||
B|------------------------------------------------------------------||
G|-4-44-x-----------7-77-x------------4-44-x------------------------||
D|-4-44-x-5-5555-xx-7-77-x-7-7777-xx--4-44-x-5-5555-xx--------------||
A|-2-22-x-5-5555-xx-5-55-x-7-7777-xx--2-22-x-5-5555-xx--------------||
E|-2-22-x-3-3333-xx-5-55-x-5-5555-xx--2-22-x-3-3333-xx-5/77x5/77xx8-||

   Heavy Distortion kicks in here:
E|------------------------------------------------------------------||
B|------------------------------------------------------------------||
G|------------------------------------------------------------------||
D|------------------------------------------------------------------||
A|-0-22-x-0-22-xxx-3----------------------------||
E|-0-22-x-0-22-xxx-3-<--times-------then>5/77x5/77xx8-5/77x5/77xx10-||

  for extra effect, a third  or fourth note can be added on to these chords
above:    <0022xx>, <2244xx>, and <3355xx>.
[ Tab from: http://www.guitartabs.cc/tabs/t/taproot/poem_tab_ver_15.html ]
Verse: Light Distortion to Heavy Distortion
E|----------------------||
B|----------------------||
D|----------------------||
G|----------------------||
A|----------------------||
E|-5/77-x-5/77-x-x-8----||

At the part where he says "WE'VE!! breathed this and WE'VE...."
kick in the second part of the intro where the heavy distortion is.

Then go to the chorus:
Chorus: Heavy Distortion
E|------------------------------------------------------------------||
B|------------------------------------------------------------------||
G|-4-44-x-----------7-77-x------------4-44-x------------------------||
D|-4-44-x-5-5555-xx-7-77-x-7-7777-xx--4-44-x-5-5555-xx--------------||
A|-2-22-x-5-5555-xx-5-55-x-7-7777-xx--2-22-x-5-5555-xx--------------||
E|-2-22-x-3-3333-xx-5-55-x-5-5555-xx--2-22-x-3-3333-xx-5/77x5/77xx8-||

Then go to the verse again.

After that, do the chorus twice.

Then there's the bridge.

Bridge: Heavy Distortion
e|-------------------|-----------
B|-------------------|-----------
G|-------------------|-----------
D|-------------------|-----------
A|-2-22--2-22--2-22--|--for the second part of the bridge, just do 
E|-2-22--2-22--2-22--|--the second part of the intro:heavy distortion
  
Then you do the chorus clean without any distortion.
when he says "In case of fire....BREAK the glass and..."
 kick in heavy distortion again when he says "BREAK!"

Then when the low E-string plays E|-5/77-x-5/77-x-x-8-||
play it twice and then for the ending chord hit

E|-------||
B|-------||
G|-------||
D|-------||
A|-2222--||
D|-2222--||

   Questions or commments go to MutraviMulac77@aol.com.
             Tabbed By: Petar Radakovic
Comments