Taproot - Poem Chords & Tabs

 

Poem Chords & Tabs

Taproot Chords & Tabs

Version: 2 Type: Bass Tab 0 ratings
1 star 2 stars 3 stars 4 stars 5 stars
comments

Poem Bass Tab

5 String Bass
I tune (ADADG)
good song bbond123@bellsouth.net for complaints or hate mail.......!

Intro
G|---------------------|
D|---------------------|
A|---------------------|
D|---------------------|
A|-0h2-2---0h2-2---3-3-| x4  (then pause)


Verse
G|-----------------------|    |---------------------|
D|-----------------------|    |---------------------|
A|-----------------------|    |---------------------|
D|-7h9-9---7h9-9---10-10-|    |-7h9-9---7h9-9-------|
A|-----------------------| x3 |-----------------2-3-| x1

G|---------------------|
D|---------------------|
A|---------------------|
D|---------------------|
A|-0h2-2---0h2-2---3-3-| x4


Chorus  (VERY melodic)
G|--------------------------------------------------------------------------------------|
D|--------------------------------------------------------------------------------------|
A|----9----------10---------12----------12--------9----------10-------------------------|
D|-9---------12------12-12----------12------12-9---------12------12-5h7-7---5h7-7---8-8-|
A|-------10---------------------12-------------------10---------------------------------| x1

G|-----------------------------------------------------------------------------------------------|
D|-----------------------------------------------------------------------------------------------|
A|----9----------10---------12----------12--------9----------10----------------------------------|
D|-9---------12------12-12----------12------12-9---------12------12-7\--------7\----7-7-7-7-7h10-|
A|-------10---------------------12-------------------10------------------------------------------| x1


Then Verse Again

Then First Part of Chorus x3
[ Tab from: http://www.guitartabs.cc/tabs/t/taproot/poem_btab_ver_2.html ]
Last Measure of 2nd chorus goes:
G|-----------------------------------------------------------------------------------------------------------|
D|-----------------------------------------------------------------------------------------------------------|
A|----9----------10---------12----------12--------9----------10----------------------------------------------|
D|-9---------12------12-12----------12------12-9---------12------12-5h7-7---5h7-7---8-8--5h7-7---5h7-7-------|
A|-------10---------------------12-------------------10--------------------------------------------------2-3-|


Interlude
G|-----|
D|-----|
A|-----|
D|-----|
A|-0h2-| x3 (its off beat, so listen to song)

"BREAK!"
G|--------------------|
D|--------------------|
A|--------------------|
D|--------------------|
A|-0h2-2---0h2-2--3-3-| x6

G|-----|    |----------|
D|-----|    |----------|
A|-----|    |----------|
D|-----|    |-9-9-9-9\-|
A|-0h2-| x3 |----------| x1  Slide down and pause

When "BREAK! the glass" comes, bass kicks back in

G|-----------------------------------------------------------------|
D|-----------------------------------------------------------------|
A|-----12----------12--------9----------10-------------------------|
D|-12----------12------12-9---------12------12-5h7-7---5h7-7---8-8-|
A|---------12-------------------10---------------------------------|

G|--------------------------------------------------------------------------------------|
D|--------------------------------------------------------------------------------------|
A|----9----------10---------12----------12--------9----------10-------------------------|
D|-9---------12------12-12----------12------12-9---------12------12-5h7-7---5h7-7---8-8-|
A|-------10---------------------12-------------------10---------------------------------|

G|---------------------------------------------------------------------------------------------------------------------------------------------|
D|---------------------------------------------------------------------------------------------------------------------------------------------|
A|----9----------10---------12----------12--------9----------10--------------------------------------------------------------------------------|
D|-9---------12------12-12----------12------12-9---------12------12-5h7-7---5h7-7---8-8---5h7-7---5h7-7---8-8---5h7-7---5h7-7---8-8---9-9-9-9\-|
A|-------10---------------------12-------------------10----------------------------------------------------------------------------------------|
Comments