Taproot - Poem Chords & Tabs

 

Poem Chords & Tabs

Taproot Chords & Tabs

Version: 1 Type: Bass Tab 0 ratings
1 star 2 stars 3 stars 4 stars 5 stars
comments

Poem Bass Tab

   
Poem
Taproot

Tuned B,F#,B,E,G#

Intro                             Repeat 4x
|---------------------------|---------------------|
|---------------------------|---------------------|
|---------------------------|---------------------|
|---3/5-5-5-5-3/5-5-5-5-5/6-|---------------------|
|---------------------------|-0-0-0-0-0h1p0-0h1-1-|

Verse                     4x
|---------------------------|
|---------------------------|
|---------------------------|
|---3/5-5-5-5-3/5-5-5-5-5/6-|
|---------------------------|
[ Tab from: http://www.guitartabs.cc/tabs/t/taproot/poem_btab.html ]
                     4x
|---------------------|
|---------------------|
|---------------------|
|---------------------|
|-0-0-0-0-0h1p0-0h1-1-|

Chorus
|------------------------------|
|------------------------------|
|---7-----7-----10-------10----|
|-5-----7---7-8-------10----10-|
|-----7------------10----------|

|-------------------------------------|
|-------------------------------------|
|---7-----7---------------------------|
|-5-----7---7-3/5-5-5-5-3/5-5-5-5-5h6-|
|-----7-------------------------------|

The Bridge is a variation on the second part of the first

thats it enjoy
Mike Geise
Comments