Taproot - Now Chords & Tabs

 

Now Chords & Tabs

Taproot Chords & Tabs

Version: 1 Type: Bass Tab 0 ratings
1 star 2 stars 3 stars 4 stars 5 stars
comments

Now Bass Tab

Band:	Taproot
Song:	Now


Fig 1

G|---------------------------------------------------|
D|---------------------------------------------------|
A|--6-6-6-6---5-5-5----------------------------------|
E|---------------------------------------------------|


Fig 2		      Fig 3

G|-------------------|----0--------------------------|
D|----0----1--1-0----|---0---------------------------|
A|-------------------|-------------------------------|
E|--3----3-----------|--3----------------------------|


Fig 4

G|---------------------------------------------------|
D|---------------------------------------------------|
A|---------------------------------------------------|
E|--0-9-8-6-9---0-9-8-6-9-9--------------------------|


Fig 5
[ Tab from: http://www.guitartabs.cc/tabs/t/taproot/now_btab.html ]
G|---------------------------------------------------|
D|------------------1-1-1-1-0-0-0--------------------|
A|---------------------------------------------------|
E|--3-3-3-3-3-3-3-3----------------------------------|


Fig 6

G|---------------------------------------------------|
D|---------------------------------------------------|
A|---------------------------------------------------|
E|-555555555555555555555555-111111111111111111-0-----|


Fig 7			 Fig 8

G|----------------------|----------------------------|
D|---0------------------|----------------------------|
A|----------------------|----------------------------|
E|--3--3----------------|--0-------------------------|

Order:

Fig 1 X 1
Fig 2 X 8
Fig 3 X 4
Fig 2 X 1
Fig 3 X 4
Fig 2 X 1
Fig 3 X 4
Fig 2 X 3
Fig 7 X 1
Fig 1 X 1
Fig 4 X 4
Fig 5 X 8
Fig 3 X 4
Fig 2 X 1
Fig 3 X 4
Fig 2 X 1
Fig 3 X 4
Fig 2 X 3
Fig 7 X 1
Fig 1 X 1
Fig 4 X 4
Fig 6 X 1
Fig 5 X 8
Fig 8 X 3
Fig 4 X 8
( i know figure 4 is wrong but i'm still trying to figure it out. plus he uses a fretless bass. if you have any corrections, email me at psyko3455@msn.com.)
Comments