Taproot - Nightmare Chords & Tabs

 

Nightmare Chords & Tabs

Taproot Chords & Tabs

Version: 1 Type: Bass Tab

Nightmare Bass Tab

   
Taproot - Nightmare

bass tab

by : doky 2006
taquilleros_de_sudamerica_maroyu_el_grupo_tropical_del_momento@hotmail.com

5-stringed bass
G D A E B

intro
|------------------|------------------|
|------------------|------------------|
|-4^4^--4^4^-------|-7^7^--7^7^-------|
|------------------|------------------|
|-----22----222222-|-----55----777777-|

verso
|-----------|-----------|
|-----------|-----------|
|----4--4---|----3--3---|
|-----------|-----------|
|-222-22-22-|-111-11-11-|

variacion de verso
|-----------|-----------|
|-----------|-----------|
|----4-42---|----3--3---|
|--------43-|-----------|
|-222-------|-111-11-11-|

pre-coro 1
|--------------|
|--------------|
|--------------|
|--------------|
|-22---22x-4---|
[ Tab from: http://www.guitartabs.cc/tabs/t/taproot/nightmare_btab.html ]
coro
|------------------------|-------------------------------------|
|------------------------|-------------------------------------|
|------------------------|-------------------------------------|
|-----99/12-12-----------|-----99/12-12------------------------|
|-6666--------12-12---\0-|-6666--------12-12-12-12-12-12-12-12-|

break 1
|-------------------------|
|-------------------------|
|-------------------------|
|-------------------------|
|-2------1111111111111111-|

pre-coro 2
|------------------|
|------------------|
|------------------|
|------------------|
|-1111111111111111-|

middle
|------------------|
|------------------|
|------------------|
|------------------|
|-1111111111111111-|

|--------------------|--------------------|
|--------------33-11-|--------------------|
|-44-33-111-333------|-44-33-111----------|
|--------------------|-----------000------|
|--------------------|--------------33-66-|

break 2
|------|
|------|
|-6----|
|------|
|------|

fin
|------------------|
|------------------|
|------------------|
|------------------|
|-1----------------|

esta cancion si que me ha costado sacar.
mando calurosos congratulaciones a cuates que tienen lo mejor del party uno y dos,
los que tienen la radio mas trucha del momento, el micro-preste 2004 y los que
escucharon los cassetes indios que grabada como loco en el 2003y2004