Taproot - Mentobe Chords & Tabs

 

Mentobe Chords & Tabs

Taproot Chords & Tabs

Version: 1 Type: Tab 0 ratings
1 star 2 stars 3 stars 4 stars 5 stars
comments

Mentobe Tab

   
Song: "Mentobe"
Artist: Taproot
Album: Gift
Transcribed By: Bryan Bramlett (bryanmb87@aol.com)

Tuning: (A,E,A,D,G,B)

INTRO: ( * - don’t play this last time through)
       ( {} - only play first time through)
|-----------------------------------------|
|-----------------------------------------|
|-----------------------------------------|
|-------------------1p0--------------1p0*-|
|-----------------------------------------|
|-{0}--0-1--1-0-3p0-----0-1-1-0-*4-1------|

MAIN RIFF:
|----------------------------------|
|----------------------------------|
|----------------------------------|
|-1p0--------------1p0-------------|
|-----0-1--1-0-3p0-----0-1-1-0-4-1-|
|-----0-1--1-0-3p0-----0-1-1-0-4-1-|

BRIDGE:
|-------------------------------------------|
|-------------------------------------------|
|-------------------------------------------|
|-------------------------------------------|
|-------------------------------------------|
|-0-0--0--0-0-0--0--0-0-0-0-0--0-0-0--0-0-0-|

VERSE: (w/ delay)
|-10h11p10h11-------|
|-------------------|
|-------------------|
|-------------12-11-|
|-------------------|
|-------------------|
[ Tab from: http://www.guitartabs.cc/tabs/t/taproot/mentobe_tab.html ]
CHORUS:
|-----------------------------------------------------------------|
|-----------------------------------------------------------------|
|-----------------------------------------------------------------|
|-9-9-9-99-88-8-8--9-9-9-99-88-8-8--9-9-9-99-88-8-8---------------|
|-9-9-9-99-88-8-8--9-9-9-99-88-8-8--9-9-9-99-88-8-8-6p5-----------|
|-9-9-9-99-88-8-8--9-9-9-99-88-8-8--9-9-9-99-88-8-8-----01-10-3p0-|

|------------------------------------------------------------|
|------------------------------------------------------------|
|------------------------------------------------------------|
|-1p0------9-9-9-99-88-8-8--9-9-9-99-88-8-8--9-9-9-99-88-8-8-|
|----------9-9-9-99-88-8-8--9-9-9-99-88-8-8--9-9-9-99-88-8-8-|
|-----0-1--9-9-9-99-88-8-8--9-9-9-99-88-8-8--9-9-9-99-88-8-8-|

INTERLUDE: (palm mute)
|---------------------------|
|---------------------------|
|---------------------------|
|---------------------------|
|---------------------------|
|-1-0-0--0-4-0-0--0-1-0-1-3-|

INTERLUDE FILL:
|-----|
|--|
|-----|
|-----|
|-----|
|-----|

INTERLUDE 2:
|--------------------------------------------|
|--------------------------------------------|
|--------------------------------------------|
|--------------------------------------------|
|--------------------------------------------|
|-0-0-2h3-2p0-0-0h1-0-0h1-0--0-0-2h3-2p0-1p0-|

OUTRO:
|----------------|
|----------------|
|-------------------|
|-------------------|
|-0-0-0--0-0--0-----|
|-0-0-0--0-0--0-----|
Comments