Taproot - Like Chords & Tabs

 

Like Chords & Tabs

Taproot Chords & Tabs

Version: 1 Type: Tab 0 ratings
1 star 2 stars 3 stars 4 stars 5 stars
comments

Like Tab

   
INTRO/ VERSE
 ----------3----------3----
 --------------------------
 --------------------------
 --2/3-2/3------3---3------
 -------------0---0--------
 --------------------------

BRIDGE 1
 --2--1--------------------
 --3--1--------------------
 --2--2--------------------
 --0--3--------------------
 --0--3--------------------
 --0--0--------------------

BRIDGE 2
 ------2/3-3-2---------2/3-3-2---
 --------------------------------
 --------------0-----------------  *LISTEN TO THE SONG AND YOU CAN HEAR
 ----0-----------0---0-----------   WHEN YOU NEED TO PLAY THIS PART*
 --0---------------0-------------
 --------------------------------

CHORUS PART A
[ Tab from: http://www.guitartabs.cc/tabs/t/taproot/like_tab.html ]
    A       D    A                   C                      D
       Hanging by a thread for your owner just helps me to see inside
  A
myself

CHORUS PART B

   D      A                   C                      D
Hanging by a thread for your owner just helps me to see........

*ORDER TO PLAY IN*

INTRO/VERSE- 10X
BRIDGE 1- 2X
CHORUS PART A
CHORUS PART B
INTRO/VERSE- 8X
BRIDGE 1- 2X
CHORUS PART A
CHORUS PART B
BRIDGE 2- LISTEN AS NEEDED
INTRO/VERSE- 6X
BRIDGE 1- 2X
CHORUS PART A- 3X
CHORUS PART B
INTRO/VERSE- 8X
  -END-

**NOTES**
STANDARD TUNING
LISTEN TO THE SONG AND WHERE THE BRIDGES COME IN...SOM OF IT IS 
STRUMMED...YOULL GET THE HANG OF IT!!!
:-) 
Comments