Taproot - I Chords & Tabs

 

I Chords & Tabs

Taproot Chords & Tabs

Version: 5 Type: Tab 0 ratings
1 star 2 stars 3 stars 4 stars 5 stars
comments

I Tab

Artist: Taproot
Song: I
Album: Gift
tabbed by: James Jarvis (down_with_da_sickness@hotmail.com)
Tuning: standard

since no one has tabbed the song right yet, here's my crack at it. email me
with any mistakes.

Intro:
E|---------------------------------------------
B|---------------------------------------------
G|---------------------------------------------
D|-----0-----7-----0-------0-----7-----0-------
A|---------------------------------------------
E|--7-----7-----7-------7-----7-----7------5b3-

Verse Riff:
E|---------------------------------------------
B|---------------------------------------------
G|---------------------------------------------
D|-----0-----7-----0-----7---------------------
A|---------------------------------------------
E|--7-----7-----7-----7-----5b3----------------
repeat this 8 times

Heavy Intro Riff (kick the distortion into full throttle):
E|---------------------------------------------
B|---------------------------------------------
G|---------------------------------------------
D|--444-44-44-444--555-55-55-555---------------
A|--444-44-44-444--555-55-55-555---------------
E|--222-22-22-222--333-33-55-333---------------

E|---------------------------------------------
B|---------------------------------------------
G|---------------------------------------------
D|--333-33-33-333--444-44-44-444---------------
A|--333-33-33-333--444-44-44-444---------------
E|--111-11-11-111--222-22-22-222---------------
[ Tab from: http://www.guitartabs.cc/tabs/t/taproot/i_tab_ver_5.html ]
Pre-Chorus:
E|---------------------------------------------
B|---------------------------------------------
G|---------------------------------------------
D|-----0-----7-----7--77--7777-----------------
A|---------------------------------------------
E|--7-----7-----7------------------------------

Chorus:
E|---------------------------------------------
B|---------------------------------------------
G|----------555555----------555555-------------
D|--444444--555555--555555--555555-------------
A|--444444----------555555---------------------
E|--222222----------333333---------------------

E|---------------------------------------------
B|---------------------------------------------
G|----------555555----------555555-------------
D|--333333--555555--444444--555555-------------
A|--333333----------444444---------------------
E|--111111----------222222---------------------

E|---------------------------------------------
B|---------------------------------------------
G|---------------------------------------------
D|--44444444--55555555--33333333--22222222-----
A|--44444444--55555555--33333333--22222222-----
E|--22222222--33333333--11111111--22222222-----

Bridge:
E|---------------------------------------------
B|---------------------------------------------
G|---------------------------------------------
D|---------------------------------------------
A|--4---------0---------5---------3------------
E|--2---------0---------3---------1------------

and thats all, folks.
Comments