Taproot - I Chords & Tabs

 

I Chords & Tabs

Taproot Chords & Tabs

Version: 1 Type: Tab 0 ratings
1 star 2 stars 3 stars 4 stars 5 stars
comments

I Tab

TAP ROOT - I
DROP D TUNING
INTRO/VERSE RIFF
------------------------------------------
------------------------------------------
-----------------------4--------------------
----0---4----0----2---------2-------------------
--2---2----2----0---0----0------------------------
---------------------------------0-0--------------
[ Tab from: http://www.guitartabs.cc/tabs/t/taproot/i_tab.html ]
------------------------------------------------------
-----------------------------------------------------
--------4----------------------4--------4----------------
-----0------0----4---------2-------2------------------------
--2---2---2---2----------0---0---0----0-----------------------
--------------------0-0---------------------00------------
THEN..........
----------------------
--------------------
----------------------  THESE NOTES ARE PLAYED A BUNCH OF TIMES.
---9-----7--------------
---9-----7-------------
---9-----7--------------
CHORUS RIFF
--------------------------------------------------------------
--------------------------------------------------------------
-----------7-7-7-7-7-7-----------6-6-6-6--------------------------------
-9-9-9-9-9-7-7-7-7-7-7-9-9-9-9-9-6-6-6-6------------------------------------------
-9-9-9-9-9-5-5-5-5-5-5-9-9-9-9-9-4-4-4-4------------------------------------------
-9-9-9-9-9-------------9-9-9-9-9---------------------------------------
THEN BACK TO 9-7 THING.
 THATS BASICALLY IT. ROCK ON!!!!
Comments