Taproot - Gift Chords & Tabs

 

Gift Chords & Tabs

Taproot Chords & Tabs

Version: 1 Type: Tab 0 ratings
1 star 2 stars 3 stars 4 stars 5 stars
comments

Gift Tab

   
By: Fuzz 
http://www.AboutFuzz.cjb.net

Gift (2000)
  
Smile 
Again & Again 
Emotional Times 
Now 
1 Nite Stand 
Believed 
Mentobe 
I 
Mirrors Reflection 
Dragged Down--Missing
Comeback------Missing
Impact--------Missing



=====
Smile
=====

Tuning (A D G C F A)

Intro (low distortion)

|----------------------------------------|
|----------------------------------------|
|----------------------------------------|
|-6-6-6-6-6--6-6-6-6-6--6-6-6-6-6--5-2-4-|
|-6-6-6-6-6--6-6-6-6-6--6-6-6-6-6--5-2-4-|
|-4-4-0-4-4--4-4-0-4-4--4-4-0-4-4--3-0-2-|

Chorus (Distortion)

|----------------------------------------|
|----------------------------------------|
|----------------------------------------|
|-6-6-6-6-6--6-6-6-6-6--6-6-6-6-6--5-2-4-|
|-6-6-6-6-6--6-6-6-6-6--6-6-6-6-6--5-2-4-|
|-4-4-0-4-4--4-4-0-4-4--4-4-0-4-4--3-0-2-|

Verse

|------------|--------------------------------------|
|------------|--------------------------------------|
|-12\9/11-11-|--------------------------------------|
|-x--x-x--x--|--------------------------------------|
|-10\7/9--9--|-5-2-4----5-2-4-4----5-2-4----5-2-4-4-|
|------------|-3-0-2----3-0-2-2----3-0-2----3-0-2-2-|

Prechorus

|--------------------------------------------------------|
|-11--11-11-11--11--11-11-11--11--11-11-11--11--11-11-11-|
|-9---9--9--9---9---9--9--9---9---9--9--9---9---9--9--9--|
|-10--10-10-10--10--10-10-10--10--10-10-10--10--10-10-10-|
|--------------------------------------------------------|
|--------------------------------------------------------|

|---------------------------------|
|---------------------------------|
|---------------------------------|
|-7-7-7-7-7-7-7-7/8-8-8-8-8-8-8-8-|
|-7-7-7-7-7-7-7-7/8-8-8-8-8-8-8-8-|
|-5-5-5-5-5-5-5-5/6-6-6-6-6-6-6-6-|

Bridge (clean w/chorus effect)

|-----0-------0-------0-------0-------0-------0-------0-------0---|
|-----0-------0-------0-------0-------0-------0-------0-------0---|
|-----0-------0-------0-------0-------0-------0-------0-------0---|
|-3-3-3-3-3-3-3-3/6-6-6-6-6-6-6-6/7-7-7-7-7-7-7-7\4-4-4-4-4-4-4-4-|
|-3-3-3-3-3-3-3-3/6-6-6-6-6-6-6-6/7-7-7-7-7-7-7-7\4-4-4-4-4-4-4-4-|
|-1-1-1-1-1-1-1-1/4-4-4-4-4-4-4-4/5-5-5-5-5-5-5-5\2-2-2-2-2-2-2-2-|

|-----0-------0-------0-------0-------0-------0-------0-------0---|
|-----0-------0-------0-------0-------0-------0-------0-------0---|
|-----0-------0-------0-------0-------0-------0-------0-------0---|
|-3-3-3-3-3-3-3-3-3-3-3-3-3-3-3-3\2-2-2-2-2-2-2-2-2-2-2-2-2-2-2-2-|
|-3-3-3-3-3-3-3-3-3-3-3-3-3-3-3-3\2-2-2-2-2-2-2-2-2-2-2-2-2-2-2-2-|
|-1-1-1-1-1-1-1-1-1-1-1-1-1-1-1-1\0-0-0-0-0-0-0-0-0-0-0-0-0-0-0-0-|

Distortion

|-----------------------------------------------------------------|
|-----------------------------------------------------------------|
|-----------------------------------------------------------------|
|-3-3-3-3-3-3-3-3/6-6-6-6-6-6-6-6/7-7-7-7-7-7-7-7\4-4-4-4-4-4-4-4-|
|-3-3-3-3-3-3-3-3/6-6-6-6-6-6-6-6/7-7-7-7-7-7-7-7\4-4-4-4-4-4-4-4-|
|-1-1-1-1-1-1-1-1/4-4-4-4-4-4-4-4/5-5-5-5-5-5-5-5\2-2-2-2-2-2-2-2-|

|-----------------------------------------------------------------|
|-----------------------------------------------------------------|
|-----------------------------------------------------------------|
|-3-3-3-3-3-3-3-3-3-3-3-3-3-3-3-3\2-2-2-2-2-2-2-2-2-2-2-2-2-2-2-2-|
|-3-3-3-3-3-3-3-3-3-3-3-3-3-3-3-3\2-2-2-2-2-2-2-2-2-2-2-2-2-2-2-2-|
|-1-1-1-1-1-1-1-1-1-1-1-1-1-1-1-1\0-0-0-0-0-0-0-0-0-0-0-0-0-0-0-0-|

End on

|---------|
|---------|
|----4h6~-|
|-7~------|
|-7~------|
|-5~------|


===============
Again amd Again
===============

Tuning: (A,E,A,D,G,B)

INTRO: (light distortion)
|--------------------------|
|--------------------------|
|--------------------------|
|--------------------------|
|-3p0-0-0-0h2-2-2-2-2h3-33-|
|-3p0-0-0-0h2-2-2-2-2h3-33-|

VERSE: (heavy distortion)
|--------------------------|
|--------------------------|
|--------------------------|
|-3p0-0-0-0h2-2-2-2-2/3-33-|
|-3p0-0-0-0h2-2-2-2-2/3-33-|
|-3p0-0-0-0h2-2-2-2-2/3-33-|

VERSE B:
|----------------------------------------------------------|
|----------------------------------------------------------|
|-10\7-7-7-7/9--10--10-10\7-7-7-7/9--10--10-10\7-7-7-7/9-9-|
|--X-X-X-X-X-X---X---X--X-X-X-X-X-X---X---X--X-X-X-X-X-X-X-|
|--8-5-5-5-5-7---8---8--8-5-5-5-5-7---8---8--8-5-5-5-5-7-7-|
|----------------------------------------------------------|

|-----------------------------------|
|-----------------------------------|
|-10-101010\7-7-7-7/9-9-9-9-9/10-10-|
|--X--X-X-X-X-X-X-X-X-X-X-X-X--X--X-|
|--8--8-8-8-5-5-5-5-7-7-7-7-7--8--8-|
|-----------------------------------|

CHORUS: (10th and 12th frets)
(play first part 2X, then 2nd part once, then first again)
|----------------------------------|----------------------------------|
|----------------------------------|----------------------------------|
|-9-999----------------------------|-99999----------------------------|
|-9-999-9-5-/10-1212-12-1212121212-|-99999-9-5-/10-1212-12-1212121212-|
|-7-777-9-5-/10-1010-10-1010101010-|-77777-9-5-/10-1010-10-1010101010-|
|-------9-5-/10-1010-10-1010101010-|-------9-5-/10-1010-10-1010101010-|

FILL:
|---|
|---|
|---|
|-5-|
|-5-|
|-5-|

INTERLUDE: (slight distortion)
|-----------------------------------------|
|-----------------------------------------|
|-----------------------------------------|
|-14\11-1111-12-12--14\11-1111-12-12-10-9-|
|-12\9---9-9-10-10--12\9---9-9-10-10------|
|-----------------------------------------|

INTERLUDE 2:
|----------------------------------------------------|
|----------------------------------------------------|
|----------------------------------------------------|
|-14\11-11-11-11-12-12-12-12-12-12-12-12-12-12-12-12-|
|-12\9---9--9--9-10-10-10-10-10-10-10-10-10-10-10-10-|
|----------------------------------------------------|

===============
Emotional Times
===============

Tuning: (A,E,A,D,G,B)

VERSE:
|--------------------------------------------------------|
|--------------------------------------------------------|
|--------------------------------------------------------|
|-00-0-00-0--1010-10-1010-10--55-5-55-5--1010-10-1010-10-|
|-00-0-00-0---8-8--8--8-8--8--55-5-55-5---8-8--8--8-8--8-|
|-00-0-00-0---8-8--8--8-8--8--55-5-55-5---8-8--8--8-8--8-|

VERSE B:
|-------------------------|
|-------------------------|
|-------------------------|
|-22-2-22-2-2-11-1-11-1-1-|
|-22-2-22-2-2-11-1-11-1-1-|
|-22-2-22-2-2-11-1-11-1-1-|

CHORUS:
|--------------------------------------------------------|
|--------------------------------------------------------|
|--------------------------------------------------------|
|-77-7-77-7-7-1010-10-1010-10-10-22-2-22-2-2-11-1-11-1-1-|
|-55-5-55-5-5--8-8--8--8-8--8--8-22-2-22-2-2-11-1-11-1-1-|
|-55-5-55-5-5--8-8--8--8-8--8--8-22-2-22-2-2-11-1-11-1-1-|

CHORUS B:
|-------------------------------------------------------------|
|-------------------------------------------------------------|
|-------------------------------------------------------------|
|-77-7-77-7-7-1010-10-1010-10-10-22-2-22-2-2------------------|
|-55-5-55-5-5--8-8--8--8-8--8--8-22-2-22-2-2------------------|
|-55-5-55-5-5--8-8--8--8-8--8--8-22-2-22-2-2-30-0-0-0h2-2h3-3-|

|------------------|
|------------------|
|------------------|
|------------------|
|------------------|
|-30-0-0-0h2-2h3-3-|

BRIDGE:
|------------------|
|------------------|
|------------------|
|-30-0-0-0h2-2h3-3-|
|-30-0-0-0h2-2h3-3-|
|-30-0-0-0h2-2h3-3-|

INTERLUDE:
|-------------------------------------------------|
|-------------------------------------------------|
|-------------------------------------5-5-5-------|
|-------------------------------3-3-3-------3-3-3-|
|-------------------------5-5-5-------------------|
|-0-0-0-0-0-0-0-0-0-0-0-0-------------------------|

INTERLUDE 2: (w/ effect)
|-----------------------------------|
|-----------------------------------|
|-55-5-----55-5-----55-5-----55-5---|
|-33-3-7---33-3-7---33-3-7---33-3-7-|
|-55-5-5---55-5-5---55-5-5---55-5-5-|
|-----------------------------------|

INTERLUDE 3: (w/ effect)
|------------|
|------------|
|-5555--7777-|
|-3333--7777-|
|-5555--5555-|
|------------|

===
Now 
===
Tuning: (A,E,A,D,G,B)

|-------------------1-1-1---4-4-4-|
|---0---0---0---0---3---3---1---1-|
|---------------------------------|
|---------------------------------|
|-3---3---3---3---3---3---3---3---|
|---------------------------------|
or
|---------------------------4-4-4-|
|-------------------5-5-5---------|
|---5---5---5---5-----------------|
|---------------------------------|
|-3---3---3---3---3---3---3---3---|
|---------------------------------|

BRIDGE:
|------------|
|------------|
|------------|
|-6-6-6--4-4-|
|-6-6-6--4-4-|
|-6-6-6--4-4-|

VERSE B:
|-----------------|
|-----------------|
|---5---5---5---5-|
|-----------------|
|-3---3---3---3---|
|-----------------|

BRIDGE B:
|-----------------------|
|-----------------------|
|-----------------------|
|-1---------1---------1-|
|-1---5p4---1---5p4---1-|
|-1-0-----0-1-0-----0-1-|
PM  .     .   .     .

CHORUS:
|-------------------------------------|
|-------------------------------------|
|-12-12-12-12-12-12-12-12-------------|
|-10-10-10-10-10-10-10-10--6-6-6--4-4-|
|-10-10-10-10-10-10-10-10--6-6-6--4-4-|
|-10-10-10-10-10-10-10-10--6-6-6--4-4-|

INTERLUDE:
|-----------------|    |---|
|-----------------|play|---|
|-3-3-3-3-3-3-3-3-| 6X |---|
|-3-3-3-3-3-3-3-3-|then|-5-|
|-1-1-1-1-1-1-1-1-|    |-5-|
|-1-1-1-1-1-1-1-1-|    |-5-|

FILL:
|-----------|
|-----------|
|-----------|
|-1---1---1-|
|-1---1---1-|
|-1---1---1-|

============
1 Nite Stand
============

Tuning: (A,E,A,D,G,B)


VERSE:
|---------------------------------------|
|---------------------------------------|
|-----------7^(7)-7--------------7^---5-|
|-----------X--------------------X--5-X-|
|-5-5--5--5-5^(5)-5--5-5-5--5--5-5^-3-3-|
|-0-0--0--0-0-----0--0-0-0--0--0-0----0-|

CHORUS:
|------------------------------------------------|
|------------------------------------------------|
|-------------33-3-333-3--------------33-3-333-3-|
|-00-0-022222211-1-111-1--00-0-022222211-1-111-1-|
|-00-0-022222211-1-111-1--00-0-022222211-1-111-1-|
|-00-0-022222211-1-111-1--00-0-022222211-1-111-1-|

|----------------------------------------------|
|----------------2-----------------------------|
|----------------2------------------33-3-333-3-|
|-00-0-03-3-3-22---22---00-0-022222211-1-111-1-|
|-00-0-03-3-3-22---22---00-0-022222211-1-111-1-|
|-00-0-03-3-3-22---22---00-0-022222211-1-111-1-|

VERSE FILL:
|--------------------------|
|--------------------------|
|-666666666666-------------|
|-444444444444666666666666-|
|-------------444444444444-|
|--------------------------|
[ Tab from: http://www.guitartabs.cc/tabs/t/taproot/gift_tab.html ]
FILL:
|--------|
|--------|
|-66-6---|
|-44-4-6-|
|------4-|
|--------|

INTERLUDE:
|----------------------------|
|----------------------------|
|-------7^(7)----66-6--6-6-6-|
|-------X--------44-4--6-6-6-|
|-55-5-55^(5)-55-44-4--4-4-4-|
|-00-0-00-----00-44-4--------|

INTERLUDE FILL:
|---|
|---|
|---|
|---|
|-5-|
|-0-|

========
Believed
========

Tuning: (A,E,A,D,G,B)

INTRO: (w/ tremolo effect)
|------------------------------------|
|------------------------------------|
|---9-----9----9-----9----9-----9----|
|-------7----------7----------7---10-|
|-7---5------7---5------7---5-----10-|
|---------------------------------10-|

VERSE: (w/ effect)
|----13-12-12-----------12-----|
|-14----12-----12----12-----12-|
|-----------------14-----------|
|------------------------------|
|------------------------------|
|------------------------------|

CHORUS:
|-----------------------------------------------------------|
|-------4-----------------4-------------------4-/6--6-6-6-6-|
|-------4-----------------4-------------------4--X--X-X-X-X-|
|-2-2-2-2-2-0--0-0--2-2-2-2-2-0--0-0--2-2-2-2-2-/4--4-4-4-4-|
|-2-2-2-2-2-0--0-0--2-2-2-2-2-0--0-0--2-2-2-2-2-------------|
|-2-2-2-2-2-0--0-0--2-2-2-2-2-0--0-0--2-2-2-2-2-------------|

|--------------------|
|--------------------|
|-5--5-5-5-5-5-5-5-5-|
|-5--5-5-5-5-5-5-5-5-|
|-3--3-3-3-3-3-3-3-3-|
|--------------------|

INTRO B:
|-------------------------|
|-------------------------|
|-------------------------|
|-10-10-10-10-10-10-10-10-|
|-10-10-10-10-10-10-10-10-|
|-10-10-10-10-10-10-10-10-|

INTERLUDE:
|---------------------------------|
|---------------------------------|
|---------------------------------|
|---------------------------------|
|-0-0-0-0-1/2-0-0-0-2/3-0-0-0-1/2-|
|-0-0-0-0-1/2-0-0-0-2/3-0-0-0-1/2-|
PM. . . .     . . .     . . .

INTERLUDE 2:
|---------------------------------|
|---------------------------------|
|---------------------------------|
|---------------------------------|
|-0-0-0-0-1/2-0-0-0-2/3-0-0-0-1/2-|
|-0-0-0-0-1/2-0-0-0-2/3-0-0-0-1/2-|

=======
Mentobe
=======

Tuning: (A,E,A,D,G,B)

INTRO: ( * - donýt play this last time through)
       ( {} - only play first time through)
|-----------------------------------------|
|-----------------------------------------|
|-----------------------------------------|
|-------------------1p0--------------1p0*-|
|-----------------------------------------|
|-{0}--0-1--1-0-3p0-----0-1-1-0-*4-1------|

MAIN RIFF:
|----------------------------------|
|----------------------------------|
|----------------------------------|
|-1p0--------------1p0-------------|
|-----0-1--1-0-3p0-----0-1-1-0-4-1-|
|-----0-1--1-0-3p0-----0-1-1-0-4-1-|

BRIDGE:
|-------------------------------------------|
|-------------------------------------------|
|-------------------------------------------|
|-------------------------------------------|
|-------------------------------------------|
|-0-0--0--0-0-0--0--0-0-0-0-0--0-0-0--0-0-0-|

VERSE: (w/ delay)
|-10h11p10h11-------|
|-------------------|
|-------------------|
|-------------12-11-|
|-------------------|
|-------------------|

CHORUS:
|-----------------------------------------------------------------|
|-----------------------------------------------------------------|
|-----------------------------------------------------------------|
|-9-9-9-99-88-8-8--9-9-9-99-88-8-8--9-9-9-99-88-8-8---------------|
|-9-9-9-99-88-8-8--9-9-9-99-88-8-8--9-9-9-99-88-8-8-6p5-----------|
|-9-9-9-99-88-8-8--9-9-9-99-88-8-8--9-9-9-99-88-8-8-----01-10-3p0-|

|------------------------------------------------------------|
|------------------------------------------------------------|
|------------------------------------------------------------|
|-1p0------9-9-9-99-88-8-8--9-9-9-99-88-8-8--9-9-9-99-88-8-8-|
|----------9-9-9-99-88-8-8--9-9-9-99-88-8-8--9-9-9-99-88-8-8-|
|-----0-1--9-9-9-99-88-8-8--9-9-9-99-88-8-8--9-9-9-99-88-8-8-|

INTERLUDE: (palm mute)
|---------------------------|
|---------------------------|
|---------------------------|
|---------------------------|
|---------------------------|
|-1-0-0--0-4-0-0--0-1-0-1-3-|

INTERLUDE FILL:
|-----|
|-<5>-|
|-----|
|-----|
|-----|
|-----|

INTERLUDE 2:
|--------------------------------------------|
|--------------------------------------------|
|--------------------------------------------|
|--------------------------------------------|
|--------------------------------------------|
|-0-0-2h3-2p0-0-0h1-0-0h1-0--0-0-2h3-2p0-1p0-|

OUTRO:
|---------------<7>-|
|---------------<7>-|
|-------------------|
|-------------------|
|-0-0-0--0-0--0-----|
|-0-0-0--0-0--0-----|

=
I 
=

Intro

|-------------------------------------------|
|-------------------------------------------|
|--------11------------------11-------------|
|---7-----------7-------9-----------9-------|
|-9---9------9-------7----7------7-----0--0-|
|-------------------------------------------|

Intro 2

|----------------------------------------------------------|
|----------------------------------------------------------|
|--------11----------11---------------11---------11--------|
|---7-----------7----------------9-----------9-------------|
|-9---9------9-----9-----0--0--7----7------7---7------0--0-|
|----------------------------------------------------------|

Chorus

|-----------------------------------------------------------------|
|-----------------------------------------------------------------|
|-----------------------------------------------------------------|
|-4-4-4-4-4-4-4-4-4-4-4-4-4-4-4-4-4-4-4-4-4-4-4-4-4-4-4-4-4-4-4-4-|
|-4-4-4-4-4-4-4-4-4-4-4-4-4-4-4-4-2-2-2-2-2-2-2-2-2-2-2-2-2-2-2-2-|
|-2-2-2-2-2-2-2-2-2-2-2-2-2-2-2-2-0-0-0-0-0-0-0-0-0-0-0-0-0-0-0-0-|

Verse

|----------------------------------------------------------|
|----------------------------------------------------------|
|--------11----------11---------------11---------11--------|
|---7-----------7----------------9-----------9-------------|
|-9---9------9-----9-----0--0--7----7------7---7------0--0-|
|----------------------------------------------------------|x3

|-----------------------------------------------------------|
|-----------------------------------------------------------|
|--------11----------11---------------11--------11-11-11-11-|
|---7-----------7----------------9-----------9--9--9--9--9--|
|-9---9------9-----9-----0--0--7----7------7----7--7--7--7--|
|-----------------------------------------------------------|

Prechorus

|--------------------------------------------------------|
|---------------9-9-9-9-9-9------------------8-8-8-8-8-8-|
|---------------x-x-x-x-x-x------------------x-x-x-x-x-x-|
|---------------7-7-7-7-7-7------------------6-6-6-6-6-6-|
|-4-4-4-4-4-4-4---------------4-4-4-4-4-4-4--------------|
|-2-2-2-2-2-2-2---------------2-2-2-2-2-2-2-0------------|

Bridge

|---------|
|---------|
|---------|
|---------|
|-4~---2~-|
|-2~---0~-|x2

|----------------|
|----------------|
|----------------|
|----------------|
|--0---(0)---2~--|
|-(2)---------0~-|x4


Chorus 3

 Gtr.1
|-----------------------------------------------------------------|
|-6-6-6-6-6-6-6-6-6-6-6-6/9-9-9-9\8-8-8-8-8-8-8-8-8-8-8-8-8-8-8-8-|
|-x-x-x-x-x-x-x-x-x-x-x-x-x-x-x-x-x-x-x-x-x-x-x-x-x-x-x-x-x-x-x-x-|
|-4-4-4-4-4-4-4-4-4-4-4-4/7-7-7-7\6-6-6-6-6-6-6-6-6-6-6-6-6-6-6-6-|
|-----------------------------------------------------------------|
|-----------------------------------------------------------------|
|Gtr.2                                                            |
|-----------------------------------------------------------------|
|-----------------------------------------------------------------|
|-----------------------------------------------------------------|
|-4-4-4-4-4-4-4-4-4-4-4-4-4-4-4-4-4-4-4-4-4-4-4-4-4-4-4-4-4-4-4-4-|
|-4-4-4-4-4-4-4-4-4-4-4-4-4-4-4-4-2-2-2-2-2-2-2-2-2-2-2-2-2-2-2-2-|
|-2-2-2-2-2-2-2-2-2-2-2-2-2-2-2-2-0-0-0-0-0-0-0-0-0-0-0-0-0-0-0-0-|

End

|------------|
|------------|
|------------|
|-4--4--4--4-|
|-2--2--2--2-|
|-0--0--0--0-|

==================
Mirrors Reflection 
==================

Tuning: (A,E,A,D,G,B)

INTRO:
|-----------------------------------------------------------------|
|-8----8-8--8----8-8--8----8-8--8----8-8--66-6-66--6--66-6-66--6--|
|-X----X-X--X----X-X--X----X-X--X----X-X--XX-X-XX-----XX-X-XX-----|
|-6/7--7-7--7\6--6-6--6/7--7-7--7\6--6-6--44-4-44-4-4-44-4-44-4-4-|
|-----------------------------------------------------------------|
|-----------------------------------------------------------------|

VERSE:
|----------------|
|----------------|
|----------------|
|-44-4-4-4p3-3-3-|
|-44-4-4-4p3-3-3-|
|-44-4-4-4p3-3-3-|

VERSE B:
|-------------------------------|
|-------------------------------|
|-------------------------------|
|-0h1-1/2-2/3-0h1-1/2-2/3-0h1-0-|
|-0h1-1/2-2/3-0h1-1/2-2/3-0h1-0-|
|-0h1-1/2-2/3-0h1-1/2-2/3-0h1-0-|

CHORUS: (w/ effect)
|------------------------------------------------------------------|
|------------------------------------------------------------------|
|-77-7-7777777-55-5-5555555-99-9-9999999--7/9-9/11-11/14-14-141414-|
|-XX-X-XXXXXXX-XX-X-XXXXXXX-XX-X-XXXXXXX--X-X-X-X---X--X--X--X-X-X-|
|-55-5-5555555-33-3-3333333-77-7-7777777--5/7-7/9---9/12-12-121212-|
|------------------------------------------------------------------|

|-----------------------------------|
|-----------------------------------|
|-77-7-7777777-55-5-5555555-99-9-99-|
|-XX-X-XXXXXXX-XX-X-XXXXXXX-XX-X-XX-|
|-55-5-5555555-33-3-3333333-77-7-77-|
|-----------------------------------|

CHORUS 2:
|------------------------------------------------------------------|
|------------------------------------------------------------------|
|-777777777777-555555555555-999999999999--7/9-9/11-11/141414141414-|
|-777777777777-555555555555-999999999999--X-X-X-X---X--X-X-X-X-X-X-|
|-555555555555-333333333333-777777777777--5/7-7/9---9/121212121212-|
|------------------------------------------------------------------|

|----------------------------------------|
|----------------------------------------|
|-777777777777-555555555555-999999999999-|
|-777777777777-555555555555-999999999999-|
|-555555555555-333333333333-777777777777-|
|----------------------------------------|

CHORUS FILL:
|--------------------------|
|--------------------------|
|-77-7-77-7-7--77-7-77-7-7-|
|-77-7-77-7-7--77-7-77-7-7-|
|-55-5-55-5-5--55-5-55-5-5-|
|--------------------------|

INTERLUDE:
|-------------------------|
|-------------------------|
|-------------------------|
|-0h1-1/2-2/3-0h1-1/2-2/3-|
|-0h1-1/2-2/3-0h1-1/2-2/3-|
|-0h1-1/2-2/3-0h1-1/2-2/3-|

INTERLUDE END:
|-------|
|-------|
|-------|
|-0h1-0-|
|-0h1-0-|
|-0h1-0-|

============
Dragged Down
============

MiSsInG

========
Comeback
========

MiSsInG

======
Impact  
======

MiSsInG


TapRoot is the a GREAT band that has changed my life alot.
Play it up! AND GET THERE NEW CD NEXT YEAR!
Comments