Taproot - Emotional Times Chords & Tabs

 

Emotional Times Chords & Tabs

Taproot Chords & Tabs

Version: 1 Type: Tab 0 ratings
1 star 2 stars 3 stars 4 stars 5 stars
comments

Emotional Times Tab

"life sucks some times, friendships turned-" 
clean/ 
A-----------------------------------0-0-0-0-0-------------- 
F-----------------------------------0-0-0-0-0-------------- 
C---------------------------------------------------------- 
G-------------12-12-12-12-12-12---7-7-7-7-7-7--5-5-5-5-5-5- 
D---2-2-2-2-2-10-10-10-10-10-10-0-7-7-7-7-7-7--3-3-3-3-3-3- 
A---0-0-0-0-0--8--8--8--8--8--8---5-5-5-5-5-5-------------- 
-OR- 
you can do it the chord way
A-------------3-3-3-3-3-----0-0-0-0-0-------------- 
F-------------3-3-3-3-3-----0-0-0-0-0-------------- 
C-------------0-0-0-0-0---------------------------- 
G-------------2-2-2-2-2---7-7-7-7-7-7--5-5-5-5-5-5- 
D---2-2-2-2-2-3-3-3-3-3---7-7-7-7-7-7--3-3-3-3-3-3- 
A---0-0-0-0-0-------------5-5-5-5-5-5-------------- 
  
"lies" 
A---0-0-0-0-0-0-0-0-0-0-0-0-0-0-0-0- 
F---0-0-0-0-0-0-0-0-0-0-0-0-0-0-0-0- 
C----------------------------------- 
G---4-4-4-4-4-4-4-4-3-3-3-3-3-3-3-3- 
D---4-4-4-4-4-4-4-4-3-3-3-3-3-3-3-3- 
A---2-2-2-2-2-2-2-2-1-1-1-1-1-1-1-1- 
"a hatred in disguise that brings tears to my eyes 
i can see truth from the neutral side 
in my mind confusion cripples me until 
my element of control unsureness" 
A---------------------------0-0-0-0-0-------------- 
F-------------3-3-3-3-3-----0-0-0-0-0-------------- 
C-------------0-0-0-0-0---------------------------- 
G-------------2-2-2-2-2---7-7-7-7-7-7--5-5-5-5-5-5- 
D---2-2-2-2-2-3-3-3-3-3---7-7-7-7-7-7--3-3-3-3-3-3- 
A---0-0-0-0-0-------------5-5-5-5-5-5-------------- 
  
  
"emotional times im just fine" 
A---0-0-0-0-0-----------------------------0-0--------0-0-- 
F---0-0-0-0-0------------3-3-3------------0-0--------0-0-- 
C---0-0-0-0-0--0-0-0-0-0-0-0-0------------0-0--------0-0-- 
G---2-2-2-2-2--2-2-2-2-2-2-2-2--4-4-4-4-4-4-4-3-3-3-3-3-3- 
D---2-2-2-2-2--3-3-3-3-3-3-3-3--4-4-4-4-4-4-4-3-3-3-3-3-3- 
A---0-0-0-0-0-------------------2-2-2-2-2-2-2-1-1-1-1-1-1- 
  
"trauma etched into my mind i can see them all the time 
iv seen my share of pain and suffering 
im just fine respecting something more than nothing 
all the time and its time, to move on" 
A-----------------8--8--8--8--8-----0-0-0-0-0-------------- 
F-----------------8--8--8--8--8-----0-0-0-0-0-------------- 
C---------------------------------------------------------- 
G-------------12-12-12-12-12-12---7-7-7-7-7-7--5-5-5-5-5-5- 
D---2-2-2-2-2-10-10-10-10-10-10-0-7-7-7-7-7-7--3-3-3-3-3-3- 
A---0-0-0-0-0--8--8--8--8--8--8---5-5-5-5-5-5-------------- 
  
"emotional times im just fine" 
A---0-0-0-0-0-----------------------------0-0--------0-0-- 
F---0-0-0-0-0------------3-3-3------------0-0--------0-0-- 
C---0-0-0-0-0--0-0-0-0-0-0-0-0------------0-0--------0-0-- 
G---2-2-2-2-2--2-2-2-2-2-2-2-2--4-4-4-4-4-4-4-3-3-3-3-3-3- 
D---2-2-2-2-2--3-3-3-3-3-3-3-3--4-4-4-4-4-4-4-3-3-3-3-3-3- 
A---0-0-0-0-0-------------------2-2-2-2-2-2-2-1-1-1-1-1-1- 
"emotional times" 
A---0-0-0-0-0--------------------------------- 
F---0-0-0-0-0------------3-3-3---------------- 
C---0-0-0-0-0--0-0-0-0-0-0-0-0---------------- 
G---2-2-2-2-2--2-2-2-2-2-2-2-2--4-4-4-4-4-4-4- 
D---2-2-2-2-2--3-3-3-3-3-3-3-3--4-4-4-4-4-4-4- 
A---0-0-0-0-0-------------------2-2-2-2-2-2-2- 
  
"im just" 
A----------------------- 
F----------------------- 
C----------------------- 
G----------------------- 
D----------------------- 
A---0-0-0-0-2-2-2-2-2/3- 
      full wah to here| pull back/4 low wah 
A---------------------|-- 
F---------------------|-- 
C---------------------|-- 
G---------------------|-- 
D---------------------|-- 
A---0-0-0-0-2-2-2-2-2/|3- 
A----------------------- 
F----------------------- 
C----------------------- 
G---2-2-2-2-4-4-4-4-4/5- 
D---2-2-2-2-4-4-4-4-4/5- 
A---0-0-0-0-2-2-2-2-2/3- 
  
"i have, seen my, faith 
sailing away"  
A------------------------------------------- 
F------------------------------------------- 
C------------------------------7-7-7-------- 
G-----------------------5-5-5--------5-5-5-- 
D-----------------7-7-7--------------------- 
A---0-0-0-0-0-0-0-0-0-0-0-0-0-0-0-0-0-0-0-0- 
"i can my faith coming back to me" 
A------------------------------------------- 
F------------------------------------------- 
C---------------------7-7-7-7--------------- 
G---------------------5-5-5-5--------------- 
D---------------------7-7-7-7--------------- 
A---0-0-0-0-0-0-0-0-0-0-0-0-0-0-0-0-0-0-0-0- 
"i can see it coming back to me 
i can see it coming back to me 
i can see it, i can taste it 
i can live it cuz im just FINE" 
A------------------------------------------- 
F------------------------------------------- 
C---------------------7-7-7-7-------9-9-9-9- 
G---------------------5-5-5-5-------9-9-9-9- 
D---------------------7-7-7-7-------7-7-7-7- 
A---0-0-0-0-0-0-0-0-0-0-0-0-0-0-0-0-0-0-0-0- 
  
A---0-0-0-0-0-0-0-0-0-0-0-0-0-0-0-0- 
F---0-0-0-0-0-0-0-0-0-0-0-0-0-0-0-0- 
C----------------------------------- 
G---4-4-4-4-4-4-4-4-3-3-3-3-3-3-3-3- 
D---4-4-4-4-4-4-4-4-3-3-3-3-3-3-3-3- 
A---2-2-2-2-2-2-2-2-1-1-1-1-1-1-1-1- 
  
  
"emotional times im just fine" 
A---0-0-0-0-0-----------------------------0-0--------0-0-- 
F---0-0-0-0-0------------3-3-3------------0-0--------0-0-- 
C---0-0-0-0-0--0-0-0-0-0-0-0-0------------0-0--------0-0-- 
G---2-2-2-2-2--2-2-2-2-2-2-2-2--4-4-4-4-4-4-4-3-3-3-3-3-3- 
D---2-2-2-2-2--3-3-3-3-3-3-3-3--4-4-4-4-4-4-4-3-3-3-3-3-3- 
A---0-0-0-0-0-------------------2-2-2-2-2-2-2-1-1-1-1-1-1- 
  
"emotional times" 
A---0-0-0-0-0--------------------------------- 
F---0-0-0-0-0------------3-3-3---------------- 
C---0-0-0-0-0--0-0-0-0-0-0-0-0---------------- 
G---2-2-2-2-2--2-2-2-2-2-2-2-2--4-4-4-4-4-4-4- 
D---2-2-2-2-2--3-3-3-3-3-3-3-3--4-4-4-4-4-4-4- 
A---0-0-0-0-0-------------------2-2-2-2-2-2-2- 
"im just" 
A----------------------- 
F----------------------- 
C----------------------- 
G----------------------- 
D----------------------- 
A---0-0-0-0-2-2-2-2-2/3- 
      full wah to here| pull back/4 low wah 
A---------------------|-- 
F---------------------|-- 
C---------------------|-- 
G---------------------|-- 
D---------------------|-- 
A---0-0-0-0-2-2-2-2-2/|3- 
A----------------------- 
F----------------------- 
C----------------------- 
G---2-2-2-2-4-4-4-4-4/5- 
D---2-2-2-2-4-4-4-4-4/5- 
A---0-0-0-0-2-2-2-2-2/3- 


------------------------------------------------------------------------
[ Tab from: http://www.guitartabs.cc/tabs/t/taproot/emotional_times_tab.html ]
Comments