Taproot - Dragged Down Chords & Tabs

 

Dragged Down Chords & Tabs

Taproot Chords & Tabs

Version: 3 Type: Bass Tab

Dragged Down Bass Tab

   
Taproot - Dragged Down

Intro:
G|----------------|  |----------------|----------------|----------------|
D|----------------|  |----------------|----------------|----------------|
A|----------------|  |----------------|----------------|----------------|
E|----------------|x5|----------------|----------------|----------------|
A|-2x2x2x-0h2-3-2-|  |-2xxx2x-0h2-3-2-|-2x2x2x-0h2-3-2-|-2x2x2x-0h2-3-2-|

Verse:
G|---------------|  |--------------------------------------------------------|
D|-2-----2----2--|  |--------------------------------------------------------|
A|--0-00--0-0--0-|  |--------------------------------------------------------|
E|---------------|x4|--------------------------------------------------------|
A|---------------|  |-3-333-33-3-33-33-33-3-33/15-1515-15-15-1515-1313-12-10-|
[ Tab from: http://www.guitartabs.cc/tabs/t/taproot/dragged_down_btab_ver_3.html ]
G|---------------|  |--------------------------------------------------------|
D|-2-----2----2--|  |--------------------------------------------------------|
A|--0-00--0-0--0-|  |--------------------------------------------------------|
E|---------------|x4|--------------------------------------------------------|
A|---------------|  |-3-333-33-3-33-33-33-3-33/15-1515-15-15-1515-15---------|

Chorus:
G|------------------------------|
D|------------------------------|
A|------------------------------|
E|-----------------6-666-6-66-6-|x2
A|-0---0---0--00-0--------------|

G|--------------------------|
D|--------------------6-----|
A|-------7----7-----6---6---|
E|-5h6p5-5--5---5-4-------4-|
A|--------------------------|

G|------------------------------|
D|------------------------------|
A|------------------------------|
E|-----------------6-666-6-66-6-|
A|-0---0---0--00-0--------------|

Second riff of Verse:
Chorus: x2
Bridge:
G|----------------|  |----------------|
D|----------------|  |----------------|
A|----------------|  |----------------|
E|-5x5x5x-3h5-6-5-|x2|----------------|x8	
A|----------------|  |-2x2x2x-0h2-3-2-|

Chorus: x2
Outro
G|---------------| 
D|-2-----2----2--|  
A|--0-00--0-0--0-|  
E|---------------|fade out
A|---------------|