Taproot - Day By Day Chords & Tabs

 

Day By Day Chords & Tabs

Taproot Chords & Tabs

Version: 2 Type: Tab 0 ratings
1 star 2 stars 3 stars 4 stars 5 stars
comments

Day By Day Tab

   
Hey guys I absolutly love this band and this song so here u guys go....enjoy


Tuning-Dropped D


Intro-

-------------------------------------
-------------------------------------
-------------------------------------
------------------------------10----- 
-------8---8------8---8--------8-----
--0-0----0----0-0---0----0-0---6-----

Then...

-------------------------------------
-------------------------------------
-------------------------------------
-------------------------5-5--------- 
------8---8------8---8---5-5---------
--0-0---0----0-0---0-----3-3---------


Pre verse-

---------------------------------------------------
---------------------------------------------------
---------------------------------------------------
--0-0--8-8---7-7-7-7/9-9---0-0--8-8---7-7-7-7/9-9--
--0-0--8-8---7-7-7-7/9-9---0-0--8-8---7-7-7-7/9-9--
--0-0--8-8---7-7-7-7/9-9---0-0--8-8---7-7-7-7/9-9--

Verse-
[ Tab from: http://www.guitartabs.cc/tabs/t/taproot/day_by_day_tab_ver_2.html ]
-------------------------------------
-------------------------------------
-------------------------------------
------------------------------10----- 
-------8---8------8---8--------8-----
--0-0----0----0-0---0----0-0---6-----

-------------------------------------
-------------------------------------
-------------------------------------
-------------------------5-5--------- 
------8---8------8---8---5-5---------
--0-0---0----0-0---0-----3-3---------

Chorus-

---------------------------------------------------
---------------------------------------------------
---------------------------------------------------
--0-0--8-8---7-7-7-7/9-9---0-0--8-8---7-7-7-7/9-9--
--0-0--8-8---7-7-7-7/9-9---0-0--8-8---7-7-7-7/9-9--
--0-0--8-8---7-7-7-7/9-9---0-0--8-8---7-7-7-7/9-9--

After a few times of playing ^ play this

------------------------------------
------------------------------------
------------------------------------
-0-0--0--10--0---0-0-0--10--5-5-5---
-0-0--8---0--8---0-0-8---0--5-5-5---
-0-0--0---0--0---0-0-0---0--3-3-3---

Bridge-

----------------------------
----------------------------
----------------------------
--5-5-5-5p4-4-4p1-1-1p0-----
--5-5-5-5p4-4-4p1-1-1p0-----
--5-5-5-5p4-4-4p1-1-1p0-----

Thats it guys  pretty easy anbd fun as hell to play.....It might be a lil
wrong in places but i think it sounds good
Comments