Taproot - Calling Chords & Tabs

 

Calling Chords & Tabs

Taproot Chords & Tabs

Version: 1 Type: Tab 0 ratings
1 star 2 stars 3 stars 4 stars 5 stars
comments

Calling Tab

Artist: Taproot
Song: Calling
Album: Blue Sky Research
-------------------------------------------------------------------------------
Tabbed by:Eric Hines
Email:hineem10@uwgb.edu


Tuning:DADGBE
                              Intro/verse/outro
e|------------------------------------------------|
B|------------------------------------------------|
G|------------------------------------------------|
D|----3------3-2----0-----3-------3-2----5--------|    then
A|------5-------------------5---------------------|
D|--0------0-----0------0------0------0-----------|

e|-------------------------------------------|
B|-------------------------------------------|
G|-------------------------------------------|
D|---3-----3-2---0-------3-----3-2----2------|
A|-----5-------------------5-----------------|
D|-0-----0-----0-------0-----0-----0---------|

                                  Prechorus
e|----------------------------------------------------------|
B|----------------------------------------------------------|
G|--7--------5----------------------------------------------|
D|--5--(8x)--3--(8x)------5-----3-2---0-----5-----3-2---5---|
A|--5--------3--------------3-----------------3-------------|
D|--5--------3----------0-----0-----0-----0-----0-----0-----|
[ Tab from: http://www.guitartabs.cc/tabs/t/taproot/calling_tab.html ]
e|-------------------------------------------------------------------------------|
B|-------------------------------------------------------------------------------|
G|--7---------5------------------------------------------------------------------|
D|--5--(8x)---3------------------------------------------------------------------|
A|--5---------3------------------------------------------------------------------|
D|--5---------3------------------------------------------------------------------|
                                   Chorus
e|-----------------------------------------------------------------|
B|-----------------------------13--------13------------------------|
G|---7----10---7-----5------------12--------12--10-----------------|    2x
D|---5----8----5-----3---------------12----------------------------|
A|---5----8----5-----3---------------------------------------------|
D|---5----8----5-----3---------------------------------------------|
                                    Bridge
e|--------------------------------------------------------------------|
B|--------------------------------------------------------------------|
G|---3-------5--------7---------5-h-7----------------------3------5---|
D|---1-(8x)--3-(8x)---5--pm...--3-h-5--pm..--  3x then-----1-(8x)-3---|
A|---1-------3--------5---------3-h-5----------------------1------3---|
D|---1-------3--------5---------3-h-5----------------------1------3---|
Comments