Taproot - Calling Chords & Tabs

 

Calling Chords & Tabs

Taproot Chords & Tabs

Version: 1 Type: Bass Tab 0 ratings
1 star 2 stars 3 stars 4 stars 5 stars
comments

Calling Bass Tab

Drop D tuning.

The little opening thingy goes like:
|-----------------------------| 
|-----------------------------| 
|-----------------------------| 
|-8p5-3h5---------------------| 

Main riff
|-----------------------[-----------------]---------------------------|
|-----------------------[-----------------]---------------------------|
|---5h8---8p7---5---5h8-[-10p8---7---5h8--]-8p7---5---5h8---8p7---7---|
|-0------0----0---0-----[0-----0---0-----0]-----0---0-----0-----0-----|
 
The segment in the brackets can be replaced with the following:

|-------------------------|
|---------8p5-------------|
|---5h8-------8p7---------|
|-0-----0---------0-------|
 
or

|--------------------------|
|---------8p5---5----------|
|---5h8-------8------------|
|-0-----0---------0--------|

or 

|--------------------------|
|--------------------------|
|---5h8---8p7---10---------|
|-0-----0-----0------------|

Take your pick
[ Tab from: http://www.guitartabs.cc/tabs/t/taproot/calling_btab.html ]
"Oooooooooooh, but you'll never understaaaaaaaand me."
|----------------------------------------------------------| 
|----------------------------------------------------------| 
|----------------------------------------------------------| 
|--3-3-3-3-3-3-3-3--5-5-5-5-5-5-5-5------------------------| 

The chorus, as far as i can tell, goes like:
|----------------------------------------------------------| 
|----------------------------------------------------------| 
|-------------10p8-----------------------------------------| 
|-0~-0-0-0--------9p8~-8-8-8--5-5-5------------------------| 

Bridge
|----------------------------------------------------------| 
|----------------------------------------------------------| 
|----------------------------------------------------------| 
|-0-0-0-0-0-0-0-0-2-2-2-2-2-2-2-2-5~-----------------------|

a couple times, then

|----------------------------------------------------------| 
|----------------------------------------------------------| 
|----------------------------------------------------------| 
|-0-0-0-0-0-0-0-0-2~---------------------------------------| 

After you play the main riff for the last time
|-----------| 
|-----------| 
|-----------| 
|-3~-/5~----| 

Any comments, criticizms, insults, praises, death threats, ice cream coupons,
zombifying viruses, or naked pictures of your mother go to icetreyy9@netscape.net
Comments