Taproot - Birthday Chords & Tabs

 

Birthday Chords & Tabs

Taproot Chords & Tabs

Version: 1 Type: Bass Tab

Birthday Bass Tab

   
taproot - birthday

bass tab

by : doky 2006
taquilleros_de_sudamerica_maroyu_el_grupo_tropical_del_momento@hotmail.com

5-stringed bass
G D A E B

verso

|------------------------------------------|
|-------(8)-(8)----------------------------|
|------------------------------------------|
|-666666---6---6---------------------------|
|---------------11111111-33333333-11111111-|

pre-coro

|-------------------------------------------------------------------|
|-------------------------------------------------------------------|
|-------------------------------------------------------------------|
|-66666666-88888888-10101010101010----------------66666666-88888888-|
|----------------------------------10101010101010-------------------|
[ Tab from: http://www.guitartabs.cc/tabs/t/taproot/birthday_btab.html ]
|-----------|-----------------|
|-----------|-----------------|
|-----------|------0-000-3333-|
|-----------|-1111------------|
|-333--1-11-|-----------------|

coro

|-----------------------|
|-----------------------|
|-----------000-000-000-|
|-111---1-11------------|
|----111----------------|

con enganches

|----------|---------|-------|
|----------|---------|-------|
|-111h3333-|-tambien-|-11-33-|
|----------|---------|-------|
|----------|---------|-------|

variacion de coro

|--------------------|
|--------------------|
|------33333-000-000-|
|-11111--------------|
|--------------------|

middle

|---------|----------|
|---------|----------|
|---------|-0----1---|
|---------|----------|
|-333-333-|----------|
       x10

break

|--------------|
|--------------|
|--------------|
|--------------|
|-3------3-----|

mando congratulaciones a los cuates que estan en el cd denominado "HASTA QUE LA
MUERTE NOS SORPRENDA", de autor el jorge salas jorgex. bien taras son, yo tambien.