Taproot - Believed Chords & Tabs

 

Believed Chords & Tabs

Taproot Chords & Tabs

Version: 1 Type: Bass Tab 0 ratings
1 star 2 stars 3 stars 4 stars 5 stars
comments

Believed Bass Tab

Taproot – Believed	
Album - Gift 	

		MAIN RIFF
G---|-----------------------------------------------4--|
D---|-------5-4h--------------------5-4h---------------|
A-2-|-2--------------2--------2—2-----------2----------|
E---|------------------0-3--------------------0-3------|
[ Tab from: http://www.guitartabs.cc/tabs/t/taproot/believed_btab.html ]
	Variation to main riff				
G------------------------------4---4------|-----------------------------------------|
D---------5-4h-----------0-3----3-------*-|----------------5-4h----------------5-4h-|
A----2----------------------------------*-|---2---2---2------------0---2---2--------|
E------------------0-3-3------------------|-----------------------------------------|
 
 The really heavy riff at 2:38 is the same as ^ 	^ repeat as needed to the end
 


Sorry for the sloppiness(my first tab), it’s a fairly easy song, I may have a few parts a little wrong  so PLEASE correct me and email me at andrew3546@hotmail.com for suggestions
Comments