Taproot - April Suits Chords & Tabs

 

April Suits Chords & Tabs

Taproot Chords & Tabs

Version: 1 Type: Bass Tab

April Suits Bass Tab

   
taproot - april suits

bass tab

by : doky 2006
taquilleros_de_sudamerica_maroyu_el_grupo_tropical_del_momento@hotmail.com

5-stringed bass
G D A E B

intro

|-------------------------------------------------|
|-------------------------------------------------|
|-------------------------------------------------|
|-5555555555555555-888888888888888--------5555555-|
|----------------------------------8888888--------|

verso

|-----------------------------|
|-----------------------------|
|-----------------------------|
|-5-5555-8-8888---------------|
|---------------6-6666-3-3333-|

coro

|-------------------------------|
|------------------0------------|
|-------------------32-------3--|
|-555555/888888\111---333-0-3-5-|
|-------------------------------|

|---------------------------|
|---------------------------|
|---------------------------|
|-555555555555-333333-------|
|--------------------333333-|

middle
[ Tab from: http://www.guitartabs.cc/tabs/t/taproot/april_suits_btab.html ]
|---------|
|---------|
|---------|
|---------|
|-3---3---|

|----------|
|-----1-0--|
|--1-3---3-|
|-3--------|
|----------|
(combiando)

coro 2

|-----------------------------------|
|-----------------------------------|
|------------------------7-45----5--|
|-777777/101010101010\333----5--5-7-|
|------------------------------7----|

|---------------------------|
|---------------------------|
|---------------------------|
|-777777777777-555555-------|
|--------------------555555-|

verso 2

|----------------------------------|
|----------------------------------|
|----------------------------------|
|-7-7777-10-10101010---------------|
|--------------------8-8888-5-5555-|

fin

|------------|
|------------|
|------------|
|-7----------|
|------------|

el nuevo album de TapRoot esta increiblemente bueno, asi que estoy sacando todas las
canciones.
Quiero mandar salutaciones a los Estes de la promocion 2005: al Salas, al Mogrovejo,
al Iturralde, Al Fitus,al Choco, a la Grace, a su amiga que no me acuerdo como se
llama, una choca no ve que era, a ella pues. cuats son ps.