Taproot - Again And Again Chords & Tabs

 

Again And Again Chords & Tabs

Taproot Chords & Tabs

Version: 1 Type: Tab 0 ratings
1 star 2 stars 3 stars 4 stars 5 stars
comments

Again And Again Tab

I'm not too sure on this one, it sounds almost like it, I would
say that this tab is fairly accurate............
(Dropped D tunning)
DADBGE

Intro/Verse(Boss Bass Synthesizer
[Tweek it till you get the right sound ;)]):
----------------------------
----------------------------
----------------------------
----5-2-2-2-4-4-4-4-3-1-1---
----5-2-2-2-4-4-4-4-3-1-1---
----3-0-0-0-2-2-2-2-1-1-1---

Play this twice with out the synthesizer then turn the synthesizer 
off 
and crank up the distortion and play it twice!
[ Tab from: http://www.guitartabs.cc/tabs/t/taproot/again_and_again_tab.html ]
Chorus (Just Need some time to myself.....) 
---------------------------------------------------------
---------------------------------------------------------
----5-5-5-4-4-4-4-----5-5--------------------4-4---------
----5-5-5-4-4-4-4-----5-5---5---4---5-5-5----4-4--5-5-5-5
----4-4-3-2-2-2-1-----5-5---5---4---4-4-4----4-4--5-5-5-5
----------------------5-5---4/3-3/2-4-3-4----4-4--3-3-3-4

Play this twice... this was hard to transcribe!

Interlude(Light Distortion):
-------------------
--------4------5---
-------5--6---3----
-----5-----7-4-----
-------------------
-------------------

play this 3 three times... slowly


That's it for this song..... Any questions? Email me!!

Song Structure:

Intro.
Verse
Chorus
Verse
Chorus
Interlude
Chorus
Verse
Outro(Same as intro but substitute phaser for synthsizer.)

Done.........................

Check out funny crap at http://turdburd.hypermart.net!!!!!
Later......
Comments