Taproot - Again And Again Chords & Tabs

 

Again And Again Chords & Tabs

Taproot Chords & Tabs

Version: 4 Type: Bass Tab

Again And Again Bass Tab

Band: Taproot
Song: Again & again
Tuning: Low A

Intro + Verse (0:15)
G|------------------------|
D|------------------------|
A|------------------------|
E|------------------------| 12x
A|-3p0-0-0h2.2-2-2-2h3-33-|

Chorus
G|--------------------------||--------------------------|
D|--------------------------||--------------------------|
A|-2-2-------3-5----3h5---3-||-2-2---5---3-5----3h5---3-|
E|-----2---3-----33-----3---||-----2---3-----33-----3---|
A|-------5------------------||--------------------------|
[ Tab from: http://www.guitartabs.cc/tabs/t/taproot/again_and_again_btab_ver_4.html ]
G|--------------------------||--------------------------|
D|--------------------------||--------------------------|
A|-----------3-5----3h5---3-||-2-2---5---3-5----3h5-----|
E|-----2---3-----33-----3---||-----2---3-----33-----3-3-|
A|-22.---5------------------||--------------------------|

“Come in” 
G|------------------------|
D|------------------------|
A|------------------------|
E|------------------------| Verse x11
A|-----------2-2-2-2h3-33-|

Chorus x2
Bridge 
G|---------------------||---------------------|
D|---------------------||---------------------|
A|-5p3-3-3h5-----------||-5p3-3-3h5-5~--------|
E|---------------------||---------------------| x9
A|-----------5~--------||---------------------|

G|---------------------||------------|
D|---------------------||------------|
A|-5p3-3-3h5-----------||-5p3-3------|
E|---------------------||------------|
A|-----------5~--------||-------5555-|

Chorus x2
“Come in” 
Verse x2
End
G|-------------|
D|-------------|
A|-------------|
E|-------------|
A|-3p0-0-0h2.2-|