Taproot - Again Amp Again Chords & Tabs

 

Again Amp Again Chords & Tabs

Taproot Chords & Tabs

Version: 1 Type: Tab 0 ratings
1 star 2 stars 3 stars 4 stars 5 stars
comments

Again Amp Again Tab

   
 	     SONG: Again & Again
          	     BAND: Taproot
          	    ALBUM: Gift
             TRANSCRIBED BY: Michael Johnson  (oricle_guitar@yahoo.com)
          	     DATE: 03/24/01
          
           
          
          	TUNING: tune your guitar as follows (A-D-G-C-F-A)
          
          
               RIFF A:	
          		
              A|---------------------------------|
              F|---------------------------------|
              C|---------------------------------|
              G|---5-2-2-2-4--4--4--4-4-5-5-5-5--|
              D|---5-2-2-2-4--4--4--4-4-5-5-5-5--|
              A|---3-0-0-0-2--2--2--2-2-3-3-3-3--|
          
               RIFF B:
          
              A|---------------------------------|
              F|---------------------------------|
              C|---------------------------------|
              G|---5-2-2-2-4----------4-5-5-5-5--|
              D|---5-2-2-2-4----------4-5-5-5-5--|
              A|---3-0-0-0-2----------2-3-3-3-3--|
          
               RIFF C:
          
              A|----------------------------------------|
              F|----------------------------------------|
              C|---12\9-9-9-9-9/11-11-11-11/12-12-12-12-|
              G|----------------------------------------|
              D|---10\7-7-7-7-7/-9--9--9--9/10-10-10-10-|
              A|----------------------------------------|
          
               RIFF D:
          
              A|---------------------------------|
              F|---------------------------------|
              C|---------------------------------|
              G|---5-2-2-2-4-x-x-x-x-4-5-5-5-5---|
              D|---5-2-2-2-4-x-x-x-x-4-5-5-5-5---|
              A|---3-0-0-0-2-x-x-x-x-2-3-3-3-3---|
          
               RIFF E:
          		   			           melodic chord
              A|-----------------------------------------|-------------------|
              F|-----------------------------------------|-------------------|
              C|--11-11-11-------------------------------|-------------------|
              G|--11-11-11-----11\7-12-12-12-12-12-12-12-|-14-14-14-14-14-14-|
              D|---9--9--9-x-x-11\7-12-12-12-12-12-12-12-|-12-12-12-12-12-12-|
              A|-----------x-x--9\5-10-10-10-10-10-10-10-|-10-10-10-10-10-10-|
          
               RIFF F:
          
              A|-------------------------------|
              F|-------------------------------|
              C|-------------------------12-11-|
              G|--11-13-13-13-13---14-14-------|
              D|---9/11-11-11-11-x-12-12-------|
              A|-------------------------------|
          
               RIFF G:
          		     
              A|---------|
              F|---------|
              C|--11--11-|
              G|--11--11-|
              D|---9---9-|
              A|---------|
[ Tab from: http://www.guitartabs.cc/tabs/t/taproot/again_amp_again_tab.html ]
Comments