Tapioca Fugitive - Jeffrey Chords & Tabs

 

Jeffrey Chords & Tabs

Tapioca Fugitive Chords & Tabs

Version: 2 Type: Bass Tab 0 ratings
1 star 2 stars 3 stars 4 stars 5 stars
comments

Jeffrey Bass Tab

Tapioca Fugitive: Jeffrey

Intro
G-------------------------------------------------------------------------|
D-----------9------9----6----7------7----4----6-------7---4---2----2-2----|
A--------7----------------------------------------------------------------|
E-----7-------------------------------------------------------------------|
[ Tab from: http://www.guitartabs.cc/tabs/t/tapioca_fugitive/jeffrey_btab_ver_2.html ]
Verse
G---------------------------------------------------------------------|
D---------------------------------------------------------------------|
A---5-5-5-5-5-5-5-5-7-7-7-7-7-7-7-7-----------------------------------|
E----------------------------------7--7--7--7--7--7-7-3-3-3-3-3-3-3-3-|
Chorus
G--------------------------------------------------------------------|
D--------------------------------------------------------------------|
A---5-5-5-5-5-5-5-5-7-7-7-7-7-7-7-7-9-9-9-9-9-9-9-9-5-5-5-5-5-5-5-5--|
E--------------------------------------------------------------------|
Comments