Tapes N Tapes - 10 Gallon Ascots Chords & Tabs

 

Tapes N Tapes Chords & Tabs

Version: 1 Type: Tab 0 ratings
1 star 2 stars 3 stars 4 stars 5 stars
comments

10 Gallon Ascots Tab

   
I made a small mistake in the previous one I sent you, sorry!



Artist    : Tapes 'n Tapes
Song      : 10 Gallon Ascots
Album     : The Loon
Tabbed By : Sander Barnhoorn
Tuning    : Standard


Capo 4



e|----------------3-----3-------2----------|
B|--0--2--3--3/5-----5-----2/3-----3--2b---|
G|-----------------------------------------|  4x
D|-----------------------------------------| 
A|-----------------------------------------|
E|-----------------------------------------|


Em


Em                   G
Ten gallon ascots and booze on your shirt

Em                     G
I'll come to dinner and fight off the flirts

F# Em            G
I know I know of wash away weekends

      F#     Em              G
They leave me cold so cold so cold...



e|-----------------------------------------|
B|-----------------------------------------|
G|--5---------5---------5---------5--------|  2x
D|--3----5----3----5----3----2----3----5---| 
A|--3----3----3----3----3----2----3----3---|
E|-------3---------3---------0---------3---|

Your hats they long
Of range they've sung
File out at night
Shock steers with fright



e|------------------------------------------------|
B|-------------------------------------------3\0--|
G|------------------------------------------------|
D|------------------------------------------------| 
A|----------2---3----2h3p2------------------------|
E|--0---3--------------------3--------------------|
                                                      2x
e|-------------------------------------------3\0--|
B|------------------------------------------------|
G|------------------------------------------------|
D|------------------------------------------------| 
A|----------2---3----2h3p2------------------------|
E|--0---3--------------------3--------------------|


Em

[ Tab from: http://www.guitartabs.cc/tabs/t/tapes_n_tapes/10_gallon_ascots_tab.html ]
Em                               G
Shockers and shooters. They line up for the hearse
 
Em                     G
I wear my best wig and drive off the freelings

F# Em                      G
In the cold, the cold, I'm bought by the sender

     F#   Em                    G
And I've been sold for coal for coal...



e|-----------------------------------------|
B|-----------------------------------------|
G|--5---------5---------5---------5--------|  4x
D|--3----5----3----5----3----2----3----5---|  
A|--3----3----3----3----3----2----3----3---|
E|-------3---------3---------0---------3---|

Your hats they long
Of range they've sung
File out at night
Shock steers with fright

The show the drone
The talk the call
The need the snow
I'll show you home



e|-----------------------------------------------------|
B|---------------------------------3--1--0h1--0h1--0---|
G|-----------------------------------------------------|
D|-----------------------------------------------------| 
A|---------2---3----2h3p2------------------------------|
E|--0--3--------------------3--------------------------|

e|---------------------------------3-------------------|
B|------------------------------------3--3/5--3--1--0--|
G|-----------------------------------------------------|
D|-----------------------------------------------------| 
A|----------2---3----2h3p2-----------------------------|
E|--0---3--------------------3-------------------------|

e|---------------------------------8--7--5--3-----2/3--|
B|-----------------------------------------------------|
G|-----------------------------------------------------|
D|-----------------------------------------------------| 
A|----------2---3----2h3p2-----------------------------|
E|--0---3--------------------3-------------------------|


| /  slide up
| \  slide down
| h  hammer-on
| p  pull-off
| ~  vibrato
| +  harmonic
| x  Mute note
===============================================================================
Comments