Tantric - Hate Me Chords & Tabs

 

Hate Me Chords & Tabs

Tantric Chords & Tabs

Version: 2 Type: Tab 0 ratings
1 star 2 stars 3 stars 4 stars 5 stars
comments

Hate Me Tab

   
Author/Artist: TANTRIC
Title: Hate Me
Transcribed by: keogh (France)
Email: keogh1977@hotmail.com

Tune 1/2 step down
(Eb Ab Db Gb Bb Eb)


Intro
(Clean tone)

-------77--------77---------7--------------------------|----------------------
-------88--------88---------8-----------3-------3---3--|----------------------
----------------------------------------0-------0---2--|----------------------
-7h9-------7h9--------7h9-------------2-------2-----0--|----------------------
-----7---------7----------7-------2h3-----2h3----------|----------------------
-------------------------------------------------------|----------------------
  
                                                                    

main riff
(clean tone)

-7-7-7-7--7-7-7-7--7-7-7-------------------0--|-----------------------------------
-7h8-8-8--7h8-8-8--7h8-8-----3-3-3--3-3-3--3--|-----------------------------------
-7-7-7-7--7-7-7-7--7-7-7-----0-0-0--0-0-0--2--|-----------------------------------
-7h9-9-9--7h9-9-9--7h9-9-----0h2-2--0h2-2--0--|-----------------------------------
-7-7-7-7--7-7-7-7--7-7-7-----2h3-3--2h3-3-----|-----------------------------------
-7-7-7-7--7-7-7-7--7-7-7----------------------|-----------------------------------

2nd guitar
(distorsion)                      
                               (3x)                        
-----------------------------------|-3--3--3--3--|----------------------------
-3h5-5-5-5-5-5-5-5-5-5-5-5-5-5-5-5-|-3--3--3--3--|----------------------------
-----------------------------------|-------------|----------------------------
-----------------------------------|-------------|----------------------------
-----------------------------------|-------------|----------------------------
-----------------------------------|-------------|----------------------------




Chorus
(distorsion)
[ Tab from: http://www.guitartabs.cc/tabs/t/tantric/hate_me_tab_ver_2.html ]
--0--x-x-x-0--x-x-x--0-0-0-----------0-0----|---------------------------------
--0--x-x-x-0--x-x-x--0-0-0---3-33-x--0-0--2-|---------------------------------
--0--x-x-x-2--x-x-x--2-0-2---5-55-x--2-2--4-|---------------------------------
--2--x-x-x-2--x-x-x--2-0-2---5-55-x--2-2--4-|---------------------------------
--2--x-x-x-0--x-x-x--0-0-0---3-33-x--0-0--2-|---------------------------------
--0--x-x-x----------------------------------|---------------------------------
    

                                                                          
Solo
(clean tone : acoustic)
It's something like that

----------------------------------------------------7-8-7h8p7----7-8-10--7-8--
-----------------------------------7-7h8p7---7-8-10-----------10--------------
---------------4-5-4h5p4---4-5-7/9---------9----------------------------------
-4h5p4---4-5-7-----------7----------------------------------------------------
-------7----------------------------------------------------------------------
------------------------------------------------------------------------------
                                                                              

-10--7-8-10--7-8-10--7-8-10/12-12---------8-h-10---8h10p8-5-------------------
-------------------------------------10---------------------8-5---------5-----
----------------------------------/9----9-----------------------7-5---7-5-----
--------------------------------------------------------------------7-----7-5-
------------------------------------------------------------------------------
------------------------------------------------------------------------------
                                                                              

-------------------------------5-------5--------5-------5--------5--|---------
-----------------------------5-------5--------5-------5-------5-----|---------
-----------------------5-7b8-----7b8------7b8-----7b8-----7b8-------|---------
-------------------5-7----------------------------------------------|---------
-7-6-5---------5-7--------------------------------------------------|---------
-------8---5-8------------------------------------------------------|---------
                                                                              
Comments