Tantric - Breakdown Chords & Tabs

 

Breakdown Chords & Tabs

Tantric Chords & Tabs

Version: 2 Type: Tab 0 ratings
1 star 2 stars 3 stars 4 stars 5 stars
comments

Breakdown Tab

   
This is the new song "Breakdown" by Tantric, the old members of the 
Band Days of the New.  Here we go ----------

Drop D Tuning 1/2 step down
Db - Ab - Db - Gb - Bb - Eb

p = Pull off
h = hammer on
\ = slide down
/ = slide up

INTRO and Basic riff for the whole song
------------------------------------------------------------------|----
------------------------------------------------------------------|----
-------2-p-0--------4-p-0---------5-p-0---------4-p-0---------2---|----
------------------------------------------------------------------|----
---0------------0-------------0-------------0-------------0-------|----
------------------------------------------------------------------|----
______________________________________________________________________

------------------------------------------------------------------|----
------------------------------------------------------------------|----
-------2-p-0---------4-p-0---------2-p-0---------4-p-0---------2--|----
------------------------------------------------------------------|----
------------------------------------------------------------------|----
---3-------------3-------------0-------------0-------------0------|----
______________________________________________________________________

-------------------------------------------------------------------|--
-------------------------------------------------------------------|--
-------2-p-0---------4-p-0---------5-p-0---------7-p-0---------9\--|--
-------------------------------------------------------------------|--
---0-------------0-------------0-------------0-------------0-------|--
-------------------------------------------------------------------|--
_______________________________________________________________________

--------------------------------------------------------------------|---
--------------------------------------------------------------------|---
-------2-p-0---------4-p-0---------2-p-0---------4-p-0---------2----|---
--------------------------------------------------------------------|---
--------------------------------------------------------------------|---
---3-------------3-------------0-------------0-------------0--------|---
_______________________________________________________________________

"In your life you seem to have it all
you seem to have control
but deep within your soul
you're losing it
you never took the time
assume that you're to blame
you think that you're insane
Won't you spare me. . . ." 
_______________________________________________________________________

CHORUS:
"I know the Breakdown. . . .                        Everything is 
[ Tab from: http://www.guitartabs.cc/tabs/t/tantric/breakdown_tab_ver_2.html ]
--------------------------------------------------|-------------------
--------------------------------------------------|-------------------
--------------------------------------------------|-------------------
--7----7----7------7---3--------3----3----3----3--|----5----5---------
--7----7----7------7---3--------3----3----3----3--|----5----5---------
--7----7----7------7---3--------3----3----3----3--|----5----5---------
 Gonna shake down someday. . . . ." 
----------------------------------------------|------------------------
----------------------------------------------|------------------------
----------------------------------------------|------------------------
--5---5---5---5---3---5---5---5-----5----5----|------------------------
--5---5---5---5---3---5---5---5-----5----5----|------------------------
--5---5---5---5---3---5---5---5-----5----5----|------------------------
______________________________________________________________________

BRIDGE: this part repeats a couple times
w/Delay and clean tone
Gtr 2 does this
-----------------------------------------------|---
-----------------------------------------------|---
------------------------5-----------5----------|---
----5-p-7-------5-p-7-------5-p-7-------5-p-7--|---
------------7----------------------------------|---
-----------------------------------------------|---
Gtr 3 comes in right before gtr 2 is finished with this
-----------------------------------------------|----
---------------------------5-------------------|----
-------7-----7---7-----7-----------------------|----
-----------------------------------------------|----
-----------------------------------------------|----
-----------------------------------------------|----
Gtr 2 Finishes the solo with this
---------------------------------------------|---
---------------------------------------------|---
---------------------------------------------|---
------5-----5---5----------------------------|---
---------------------------------------------|---
---------------------------------------------|---

Gtr 1 hits this under this little solo
-----------------------------------------------
------3------------------------3--------3------
------2------------------------2--------2------
-----------------------------------------------
-----------------------------------------------
-----------------------------------------------
You'll have to listen to the song to place everything

This is it. .. . . If i forgot anything or made any mistakes
Please feel free to Email me at: Phil@ice9rocks.com.  I play in a 
Cover/Original band called ICE9 (www.ICE9ROCKS.com) so i have alot
of Current rock and alternative tabs layin' around.  I also have some 
older stuff too, but that might take awhile to find.  Email me and 
maybe i have what you might need.
Later!!!!!!!!!!
Comments