Tantric - Breakdown Acoustic Chords & Tabs

 

Breakdown Acoustic Chords & Tabs

Tantric Chords & Tabs

Version: 1 Type: Tab 1 rating
1 star 2 stars 3 stars 4 stars 5 stars
comments

Breakdown Acoustic Tab

   
Tantric
“Breakdown”
Tabbed by Ben Gunning

This is an acoustic version that I tabbed out based on a live video 
performance.  It is 100% correct.

 
p= pulloff
h= hammer
/= slide
^= use upstroke

Intro (4x) RIFF 1   start lyrics after 2X thru
-------------------------------------|---------------------------------------- 
-------------------------------------|---------------------------------------- 
---2p0-----4p0-----5p0-----4p0------2|--2p0-----4p0-----2p0-----4p0-----2----- 
-------------------------------------|---------------------------------------- 
-0-------0-------0-------0-------0---|---------------------------------------- 
-------------------------------------|3-------3-------0-------0-------0------- 
                                                                               
[ Tab from: http://www.guitartabs.cc/tabs/t/tantric/breakdown_acoustic_tab.html ]
--------------------------------------|--------------------------------------- 
--------------------------------------|--------------------------------------- 
---2p0-----4p0-------5p0-----7p0-----9|--2p0-----4p0-----2p0-----4p0-----2---- 
--------------------------------------|--------------------------------------- 
-0-------0-------0---------0-------0--|--------------------------------------- 
--------------------------------------|3-------3-------0-------0-------0------

RIFF 2(5x)
--------------------------------------------------|
--------------------------------------------------|
--------------------------------------------------|
--7--7----0h3-3-3---5--5—-3/5-5-5-5--------------|
--7--7----0h3-3-3---5--5—-3/5-5-5-5--------------|
--7--7----0h3-3-3---5--5—-3/5-5-5-5--------------|
 
RIFF 1 (3X)
RIFF 2 (3X)

RIFF 3 (5X) Bridge

      ^        ^         ^
-----0-------0--------0-----|
-----0-------0--------0-----|
-----0-------0--------0-----|
-----0-------0--------0-----|
---7-------3--------5-------|
--7-------3--------5--------|

Outtro RIFF 2 (8X) slightly modify strum pattern for transition between riffs to
create a kind of unique ending


Comments