Tantric - Astounded Chords & Tabs

 

Astounded Chords & Tabs

Tantric Chords & Tabs

Version: 4 Type: Tab 0 ratings
1 star 2 stars 3 stars 4 stars 5 stars
comments

Astounded Tab

   
Tancribed by: Rob "Fetus" Torrey
Email: fetusinchains@aol.com

Half Step Down
D-A-D-G-B-E

Intro/Verse
E------------------------------------------------------------
B----------------------------------------------------------3-
G--------0-0--------0-0------------------------------2p0-----
D--0h2--------0h2--------0h2----------00-------00--------0---
A------0----------0----------0------3--------0---------------
D-------------------------------0h3------3h5-----------------
[ Tab from: http://www.guitartabs.cc/tabs/t/tantric/astounded_tab_ver_4.html ]
Pre-Chorus
E--0--0--0-------------------------
B--0--0--0-------------------------
G--2--0--0-------------------------
D--2--0--0-------------------------x4
A--0--3--5-------------------------
D--0--3--5-------------------------

Chorus
E----------------------------------
B----------------------------------
G--9--7--5--7----------------------
D--7--5--3--5----------------------x4
A--7--5--3--5----------------------
D--7--5--3--5----------------------

Bridge=3DChorus

End Chorus
E----------------------------------  ----------------
B----------------------------------  ----------------
G--9--7--5--7----------------------  ---5--7--5--7---
D--7--5--3--5----------------------x8---3--5--3--5---
A--7--5--3--5----------------------  ---3--5--3--5---
D--7--5--3--5----------------------  ---3--5--3--5---

Intro/Verse x13
Pre-Chorus
Chorus
Verse x6
Pre-Chorus
Chorus
Bridge
End Chorus
Verse x4
Comments