Tantric - Astounded Chords & Tabs

 

Astounded Chords & Tabs

Tantric Chords & Tabs

Version: 1 Type: Bass Tab 0 ratings
1 star 2 stars 3 stars 4 stars 5 stars
comments

Astounded Bass Tab

This song really cool and pretty easy to if you have any question on how to play it 
e-mail me sosa101@aol.com

INTRO   
G-------------------
D-------------------
A-------------------
E-4--4--4--0--2--2--
     
("Lost in Time......" 
G ------------------------------------
D ------------------------------------
A ------------------------------------
E --4--4--4--4--4--4--0--0--2--2--2--2

CHORUS: 2x
G --------------------------------------------------------
D --------------------------------------------------------
A --------------------------------------------------------
E ---4---7---9p----0--0--2--4--4--2--2--2--0--0--2--2--2--
[ Tab from: http://www.guitartabs.cc/tabs/t/tantric/astounded_btab.html ]
VERSE:
G -------------------
D -------------------
A -------------------
E -4--4--4--0--2--2--
                              
("Lost in Time......" 
G ------------------------------------
D ------------------------------------
A ------------------------------------
E --4--4--4--4--4--4--0--0--2--2--2--2

CHORUS: 2x
G-----------------------------------------------------
D-----------------------------------------------------
A-----------------------------------------------------
E4---7---9p----0--0--2--4--4--2--2--2--0--0--2--2--2--

(during guitar solo)
G -------------------
D -------------------
A -------------------
E -4--4--4--0--2--2--

CHORUS: 4x
G-----------------------------------------------------
D-----------------------------------------------------
A-----------------------------------------------------
E4---7---9p----0--0--2--4--4--2--2--2--0--0--2--2--2--

(4th time on ending chorus)
G-------------------------------------------------------------------------------
D-------------------------------------------------------------------------------
A-------------------------------------------------------------------------------
E---4---7---9p----0--0--2--4--4--2--2--2--0--0--2--2--0--0--2--2--0--0--2--2/4--
Comments