Tanning Beds - For You Chords & Tabs

 

For You Chords & Tabs

Tanning Beds Chords & Tabs

Version: 1 Type: Tab 0 ratings
1 star 2 stars 3 stars 4 stars 5 stars
comments

For You Tab

   
Guitar capo #3


	Standard tuning E A D G B E

E---------------------------------
B---------------------------------
G-----0-----0------0-----0--------
D-------0-0----------0-0----------
A---2------------3----------------
E---------------------------------
[ Tab from: http://www.guitartabs.cc/tabs/t/tanning_beds/for_you_tab.html ]
E---------------------------------
B---------------------------------
G------0-----0-----0-----0--------
D--------0-0---------0-0----------
A----------------0----------------
E---3-----------------------------

E---------------------------------
B---------------------------------
G-----0-----0------0-----0--------
D-------0-0----------0-0----------
A---2------------3----------------
E---------------------------------

E---------------------------------
B---------------------------------
G-----0-----0-----0-----0---------
D-------0-0---------0-0-----------
A---3-----------------------------
E---------------0-----------------
 “For You” by Cameron Rindal

Chords are D, Eb, C, and A# strumm easly
Comments