Tankcsapda - Ki Csinal Rendet Chords & Tabs

 

Ki Csinal Rendet Chords & Tabs

Tankcsapda Chords & Tabs

Version: 1 Type: Tab 0 ratings
1 star 2 stars 3 stars 4 stars 5 stars
comments

Ki Csinal Rendet Tab

Ki csinál rendet

Guitar
e:-------------------------------------------------------------|
B:-------------------------------------------------------------|
G:-------------------------------------------------------------|
D:----------------------------------------7--------------------|
A:----------------------------------------7--------------------|
E:----------------------------------------5--------------------|


Bridge:

Guitar
e:-------------------------------------------------------------|
B:-------------------------------------------------------------|
G:---------5---------------------------------------------------|
D:-57^5--7----------5-----7-----7--7-7--7--7--7--7-7--7--7-----|
A:---------------57^5--7---7----7--7-7--7--7--7--7-7--7--7-----|
E:------------------------------5--5-5--5--5--5--5-5--5--5-----|

e:-------------------------------------------------------------|
B:-------------------------------------------------------------|
G:-5-5-5-5-5-5-5-5-5-5-5-5-5-5-2-2-2-2-2-----------------------|
D:-5-5-5-5-5-5-5-5-5-5-5-5-5-5-2-2-2-2-2-----------------------|
A:-3-3-3-3-3-3-3-3-3-3-3-3-3-3-0-0-0-0-0-----------------------|
E:-------------------------------------------------------------|
  Az ágyam bal oldalán ébredek reggel.
  Füstsz?r?-hegyek, üveg-tenger,
  Mellettem fekszik az éjszakai vámpírom

e:-------------------------------------------------------------|
B:-------------------------------------------------------------|
G:-5-5-5-5-5-5-5-5-5-5-5-5-5-5-7-7-7-7-7-----------------------|
D:-5-5-5-5-5-5-5-5-5-5-5-5-5-5-7-7-7-7-7-----------------------|
A:-3-3-3-3-3-3-3-3-3-3-3-3-3-3-5-5-5-5-5-----------------------|
E:-------------------------------------------------------------|
  Beengedem, érvényes volt nála a vámpapírom.

e:-------------------------------------------------------------|
B:-------------------------------------------------------------|
G:---------5---------------------------------------------------|
D:-57^5--7----------5-----7-----7--7-7--7--7--7--7-7--7--7-----|
A:---------------57^5--7---7----7--7-7--7--7--7--7-7--7--7-----|
E:------------------------------5--5-5--5--5--5--5-5--5--5-----|
[ Tab from: http://www.guitartabs.cc/tabs/t/tankcsapda/ki_csinal_rendet_tab.html ]
e:-------------------------------------------------------------|
B:-------------------------------------------------------------|
G:-5-5-5-5-5-5-5-5-5-5-5-5-5-5-2-2-2-2-2-----------------------|
D:-5-5-5-5-5-5-5-5-5-5-5-5-5-5-2-2-2-2-2-----------------------|
A:-3-3-3-3-3-3-3-3-3-3-3-3-3-3-0-0-0-0-0-----------------------|
E:-------------------------------------------------------------|
  Hogy került a sarokba az a róka,
  Alul fekete n?re, vörös paróka.
  Messzir?l valami rágógumizene szakítja szét a csendet.

e:-------------------------------------------------------------|
B:-------------------------------------------------------------|
G:-------------------------------------------------------------|
D:-3-3-3-3-3-3-3-3-3-3-3-3-3-3-5-5-5-5-5-----------------------|
A:-3-3-3-3-3-3-3-3-3-3-3-3-3-3-5-5-5-5-5-----------------------|
E:-1-1-1-1-1-1-1-1-1-1-1-1-1-1-3-3-3-3-3-----------------------|
  Hova lettek a lányok, most ki a fasz csinál rendet?

e:-------------------------------------------------------------|
B:-------------------------------------------------------------|
G:-------------------------------------------------------------|
D:-2---2---2--5-2----------7-7-7-7-7-7-7-----------------------|
A:-0---0---0--3-0----3-3-3-5-5-5-5-5-5-5-----------------------|
E:----------------0--1-1-1-------------------------------------|
  Nem kellett volna köpködni a földre,
  Nem kellett volna, nem kellett volna, baby.

e:-------------------------------------------------------------|
B:-------------------------------------------------------------|
G:-5-5-5-5-5-5-5-5-5-5-5-5-5-5-2-2-2-2-2-----------------------|
D:-5-5-5-5-5-5-5-5-5-5-5-5-5-5-2-2-2-2-2-----------------------|
A:-3-3-3-3-3-3-3-3-3-3-3-3-3-3-0-0-0-0-0-----------------------|
E:-------------------------------------------------------------|
  Én nem tudom, hogy mi történt velem az éjjel.
  Régen szívtam magam ennyire széjjel.
  Fürödtünk vajba-tejbe, de én nem akartam, hogy én legyek az,

e:-------------------------------------------------------------|
B:-------------------------------------------------------------|
G:-------------------------------------------------------------|
D:-3-3-3-3-3-3-3-3-3-3-3-3-3-3-5-5-5-5-5-----------------------|
A:-3-3-3-3-3-3-3-3-3-3-3-3-3-3-5-5-5-5-5-----------------------|
E:-1-1-1-1-1-1-1-1-1-1-1-1-1-1-3-3-3-3-3-----------------------|
  Akit a kalapácsos tegnap este el?sz?r vág fejbe.

e:-------------------------------------------------------------|
B:-------------------------------------------------------------|
G:-------------------------------------------------------------|
D:-2---2---2--5-2----------7-7-7-7-7-7-7-----------------------|
A:-0---0---0--3-0----3-3-3-5-5-5-5-5-5-5-----------------------|
E:----------------0--1-1-1-------------------------------------|
  Nem kellett volna köpködni a földre,
  Nem kellett volna, nem kellett volna, baby.
  Nem kellett volna köpködni a földre,
  Nem kellett volna, nem kellett volna, baby.

  Nem kellett volna köpködni a földre,
  Nem kellett volna, nem kellett volna, baby.
  Nem kellett volna köpködni a földre,
  Nem kellett volna, nem kellett volna, baby, yeah!
Comments