Tankcsapda - Kapd Be A Horgot Chords & Tabs

 

Kapd Be A Horgot Chords & Tabs

Tankcsapda Chords & Tabs

Version: 1 Type: Bass Tab 0 ratings
1 star 2 stars 3 stars 4 stars 5 stars
comments

Kapd Be A Horgot Bass Tab

   
Tankcsapda - Kapd be a horgot
(tab by Razer)

Tuning : E A D G 	Time Signature: 4/4

 |       |       |       |        |       |       |       |        
|--------------------------------|--------------------------------|
|--------------------------------|--------------------------------|
|--------------------------------|--------------------------------|
|--------------------------------|--------------------------------|

 |       |       |       |        |       |       |       |        
|--------------------------------|--------------------------------|
|--------------------------------|--------------------------------|
|0---2---2---0---2---2---0---2---|--------------------------------|
|--------------------------------|----0---0---0---0-------0-------|

 |       |       |       |        |       |       |       |        
|--------------------------------|--------------------------------|
|--------------------------------|--------------------------------|
|0---2---2---0---2---2---0---2---|--------------------------------|
|--------------------------------|----0---0---0---0-------0-------|

 |       |       |       |        |       |       |       |        
|--------------------------------|--------------------------------|
|--------------------------------|--------------------------------|
|0---2---2---0---2---2---0---2---|--------------------------------|
|--------------------------------|----0---0---0---0-------0-------|

 |       |       |       |        |       |       |       |        
|--------------------------------|--------------------------------|
|------------------------0---2---|--------------------------------|
|0---2---2---0---2---2-----------|--------------------------------|
|--------------------------------|--------------------------------|

 |       |       |       |        |       |       |       |        
|--------------------------------|--------------------------------|
|--------------------0-----------|--------------------------------|
|2-------2---2---2---------------|--------------------------------|
|----------------------------3---|----3---3---3---3---3---3---3---|

 |       |       |       |        |       |       |       |        
|--------------------------------|--------------------------------|
|--------------------0-----------|--------------------------------|
|2-------2---2---2---------------|--------------------------------|
|----------------------------3---|----3---3---3---3---3---3---3---|

 |       |       |       |        |       |       |       |        
|--------------------------------|--------------------------------|
|--------------------0-----------|--------------------------------|
|2-------2---2---2---------------|--------------------------------|
|----------------------------3---|----3---3---3---3---3---3---3---|

 |       |       |       |        |       |       |       |        
|--------------------------------|--------------------------------|
|--------------------0-----------|--------------------------------|
|2-------2---2---2---------------|--------------------------------|
|----------------------------3---|----3---3---3---3---3---3---3---|

 |       |       |       |        |       |       |       |        
|--------------------------------|--------------------------------|
|--------------------0-----------|--------------------------------|
|2-------2---2---2---------------|--------------------------------|
|----------------------------3---|----3---3---3---3---3---3---3---|

 |       |       |       |        |       |       |       |        
|--------------------------------|--------------------------------|
|--------------------0-----------|--------------------------------|
|2-------2---2---2---------------|--------------------------------|
|----------------------------3---|----3---3---3---3---3---3---3---|

 |       |       |       |        |       |       |       |        
|--------------------------------|--------------------------------|
|--------------------0-----------|--------------------------------|
|2-------2---2---2---------------|--------------------------------|
|----------------------------3---|----3---3---3---3---3---3---3---|

 |       |       |       |        |       |       |       |        
|--------------------------------|--------------------------------|
|--------------------0-----------|--------------------------------|
|2-------2---2---2---------------|--------------------------------|
|----------------------------3---|----3---3---3---3---3---3---3---|

 |       |       |       |        |       |       |       |        
|--------------------------------|--------------------------------|
|--------------------0-----------|--------------------------------|
|2-------2---2---2---------------|--------------------------------|
|----------------------------3---|----3---3---3---3---3---3---3---|

 |       |       |       |        |       |       |       |        
|--------------------------------|--------------------------------|
|--------------------0-----------|--------------------------------|
|2-------2---2---2---------------|--------------------------------|
|----------------------------3---|----3---3---3---3---3---3---3---|

 |       |       |       |        |       |       |       |        
|--------------------------------|--------------------------------|
|--------------------0-----------|--------------------------------|
|2-------2---2---2---------------|--------------------------------|
|----------------------------3---|----3---3---3---3---3---3---3---|

 |       |       |       |        |       |       |       |        
|--------------------------------|--------------------------------|
|--------------------0-----------|--------------------------------|
|2-------2---2---2---------------|--------------------------------|
|----------------------------0---|----0---0---0---0---0---0---0---|

 |       |       |       |        |       |       |       |        
|--------------------------------|--------------------------------|
|--------------------------------|--------------------------------|
|--------------------------------|0-------0---0---0---0---0---0---|
|3-------3---3---3---3---3---3---|--------------------------------|

 |       |       |       |        |       |       |       |        
|--------------------------------|--------------------------------|
|--------------------------------|--------------------------------|
|0---2---2---0---2---2---0---2---|2---0---2---2---0---2---2---2---|
|--------------------------------|--------------------------------|

 |       |       |       |        |       |       |       |        
|--------------------------------|--------------------------------|
|--------------------------------|--------------------------------|
|--------------------------------|--------------------------------|
|0-------0---0---0---0---0---0---|3---3---3---3---3---3---3---3---|

 |       |       |       |        |       |       |       |        
|--------------------------------|--------------------------------|
|--------------------------------|--------------------------------|
|--------------------------------|--------------------------------|
|2---2---2---2---2---2---2---2---|2---2---2---2---2---------------|

 |       |       |       |        |       |       |       |        
|--------------------------------|--------------------------------|
|--------------------------------|--------------------------------|
|0---2---2---0---2---2---0---2---|--------------------------------|
|--------------------------------|----0---0---0---0-------0-------|

 |       |       |       |        |       |       |       |        
|--------------------------------|--------------------------------|
|--------------------------------|--------------------------------|
|0---2---2---0---2---2---0---2---|--------------------------------|
|--------------------------------|----0---0---0---0-------0-------|

 |       |       |       |        |       |       |       |        
|--------------------------------|--------------------------------|
|--------------------------------|--------------------------------|
|0---2---2---0---2---2---0---2---|--------------------------------|
|--------------------------------|----0---0---0---0-------0-------|

 |       |       |       |        |       |       |       |        
|--------------------------------|--------------------------------|
|------------------------0---2---|--------------------------------|
|0---2---2---0---2---2-----------|--------------------------------|
|--------------------------------|--------------------------------|

 |       |       |       |        |       |       |       |        
|--------------------------------|--------------------------------|
|--------------------0-----------|--------------------------------|
|2-------2---2---2---------------|--------------------------------|
|----------------------------3---|----3---3---3---3---3---3---3---|

 |       |       |       |        |       |       |       |        
|--------------------------------|--------------------------------|
|--------------------0-----------|--------------------------------|
|2-------2---2---2---------------|--------------------------------|
|----------------------------3---|----3---3---3---3---3---3---3---|

 |       |       |       |        |       |       |       |        
|--------------------------------|--------------------------------|
|--------------------0-----------|--------------------------------|
|2-------2---2---2---------------|--------------------------------|
|----------------------------3---|----3---3---3---3---3---3---3---|

 |       |       |       |        |       |       |       |        
|--------------------------------|--------------------------------|
|--------------------0-----------|--------------------------------|
|2-------2---2---2---------------|--------------------------------|
|----------------------------3---|----3---3---3---3---3---3---3---|

 |       |       |       |        |       |       |       |        
|--------------------------------|--------------------------------|
|--------------------0-----------|--------------------------------|
|2-------2---2---2---------------|--------------------------------|
|----------------------------3---|----3---3---3---3---3---3---3---|

 |       |       |       |        |       |       |       |        
|--------------------------------|--------------------------------|
|--------------------0-----------|--------------------------------|
|2-------2---2---2---------------|--------------------------------|
|----------------------------3---|----3---3---3---3---3---3---3---|

 |       |       |       |        |       |       |       |        
|--------------------------------|--------------------------------|
|--------------------0-----------|--------------------------------|
|2-------2---2---2---------------|--------------------------------|
|----------------------------3---|----3---3---3---3---3---3---3---|

 |       |       |       |        |       |       |       |        
|--------------------------------|--------------------------------|
|--------------------0-----------|--------------------------------|
|2-------2---2---2---------------|--------------------------------|
|----------------------------0---|----0---0---0---0---0---0---0---|

 |       |       |       |        |       |       |       |        
|--------------------------------|--------------------------------|
|--------------------------------|--------------------------------|
|--------------------------------|0-------0---0---0---0---0---0---|
|3-------3---3---3---3---3---3---|--------------------------------|
[ Tab from: http://www.guitartabs.cc/tabs/t/tankcsapda/kapd_be_a_horgot_btab.html ]
 |       |       |       |        |       |       |       |        
|--------------------------------|--------------------------------|
|--------------------------------|--------------------------------|
|0---2---2---0---2---2---0---2---|2---0---2---2---0---2---2---2---|
|--------------------------------|--------------------------------|

 |       |       |       |        |       |       |       |        
|--------------------------------|--------------------------------|
|--------------------------------|--------------------------------|
|--------------------------------|--------------------------------|
|0-------0---0---0---0---0---0---|3---3---3---3---3---3---3---3---|

 |       |       |       |        |       |       |       |        
|--------------------------------|--------------------------------|
|--------------------------------|--------------------------------|
|--------------------------------|--------------------------------|
|2---2---2---2---2---2---2---2---|2---2---2---2---2---2---2---2---|

 |       |       |       |        |       |       |       |        
|--------------------------------|--------------------------------|
|--------------------------------|--------------------------------|
|0---2---2---0---2---2---0---2---|--------------------------------|
|--------------------------------|----0---0---0---0-------0-------|

 |       |       |       |        |       |       |       |        
|--------------------------------|--------------------------------|
|--------------------------------|--------------------------------|
|0---2---2---0---2---2---0---2---|--------------------------------|
|--------------------------------|----0---0---0---0-------0-------|

 |       |       |       |        |       |       |       |        
|--------------------------------|--------------------------------|
|--------------------------------|--------------------------------|
|0---2---2---0---2---2---0---2---|--------------------------------|
|--------------------------------|----0---0---0---0-------0-------|

 |       |       |       |        |       |       |       |        
|--------------------------------|--------------------------------|
|------------------------0---2---|--------------------------------|
|0---2---2---0---2---2-----------|--------------------------------|
|--------------------------------|--------------------------------|

 |       |       |       |        |       |       |       |        
|--------------------------------|--------------------------------|
|--------------------------------|--------------------------------|
|2---2---2---2---2---2---0-------|--------------------------------|
|----------------------------0---|0---0---0---0---0---0---0---0---|

 |       |       |       |        |       |       |       |        
|--------------------------------|--------------------------------|
|--------------------------------|--------------------------------|
|2---2---2---2---2---2---0-------|--------------------------------|
|----------------------------0---|0---0---0---0---0---0---0---0---|

 |       |       |       |        |       |       |       |        
|--------------------------------|--------------------------------|
|--------------------------------|--------------------------------|
|2---2---2---2---2---2---0-------|--------------------------------|
|----------------------------0---|0---0---0---0---0---0---0---0---|

 |       |       |       |        |       |       |       |        
|--------------------------------|--------------------------------|
|--------------------------------|--------------------------------|
|--------------------------------|0---0---0---0---0---0---0---0---|
|3---3---3---3---3---3---3---3---|--------------------------------|

 |       |       |       |        |       |       |       |        
|--------------------------------|--------------------------------|
|--------------------------------|--------------------------------|
|2---2---------------------------|--------------------------------|
|----------------------------0---|----0---------------------------|

 |       |       |       |        |       |       |       |        
|--------------------------------|--------------------------------|
|--------------------------------|--------------------------------|
|2---2---------------------------|--------------------------------|
|----------------------------0---|----0---------------------------|

 |       |       |       |        |       |       |       |        
|--------------------------------|--------------------------------|
|--------------------------------|--------------------------------|
|2---2---------------------------|--------------------------------|
|----------------------------0---|----0---------------------------|

 |       |       |       |        |       |       |       |        
|--------------------------------|--------------------------------|
|--------------------------------|--------------------------------|
|2---2---------------------------|------------0-------0---2---0---|
|----------------------------0---|----0---------------------------|

 |       |       |       |        |       |       |       |        
|--------------------------------|--------------------------------|
|--------------------------------|--------------------------------|
|0---2---2---0---2---2---0---2---|--------------------------------|
|--------------------------------|----0---0---0---0-------0-------|

 |       |       |       |        |       |       |       |        
|--------------------------------|--------------------------------|
|--------------------------------|--------------------------------|
|0---2---2---0---2---2---0---2---|--------------------------------|
|--------------------------------|----0---0---0---0-------0-------|

 |       |       |       |        |       |       |       |        
|--------------------------------|--------------------------------|
|--------------------------------|--------------------------------|
|0---2---2---0---2---2---0---2---|--------------------------------|
|--------------------------------|----0---0---0---0-------0-------|

 |       |       |       |        |       |       |       |        
|--------------------------------|--------------------------------|
|--------------------------------|--------------------------------|
|0---2---2---0---2---2---0---2---|--------------------------------|
|--------------------------------|----0---0---0---0---0---0---0---|

 |       |       |       |        |       |       |       |        
|--------------------------------|--------------------------------|
|--------------------------------|--------------------------------|
|--------------------------------|0---0---0---0---0---0---0---0---|
|3-------3---3---3---3---3---3---|--------------------------------|

 |       |       |       |        |       |       |       |        
|--------------------------------|--------------------------------|
|--------------------------------|--------------------------------|
|0---2---2---0---2---2---0---2---|2---0---2---2---0---2---2---2---|
|--------------------------------|--------------------------------|

 |       |       |       |        |       |       |       |        
|--------------------------------|--------------------------------|
|--------------------------------|--------------------------------|
|--------------------------------|--------------------------------|
|0-------0---0---0---0---0---0---|3---3---3---3---3---3---3---3---|

 |       |       |       |        |       |       |       |        
|--------------------------------|--------------------------------|
|--------------------------------|--------------------------------|
|--------------------------------|--------------------------------|
|2---2---2---2---2---2---2---2---|2-------0-----------------------|

 |       |       |       |        |       |       |       |        
|--------------------------------|--------------------------------|
|--------------------------------|--------------------------------|
|0---2-------0---2-------0---2---|--------------------------------|
|--------------------------------|----0-------0-------0-----------|

 |       |       |       |        |       |       |       |        
|--------------------------------|--------------------------------|
|--------------------------------|--------------------------------|
|0---2-------0---2-------0---2---|--------------------------------|
|--------------------------------|----0-------0-------0-----------|

 |       |       |       |        |       |       |       |        
|--------------------------------|--------------------------------|
|--------------------------------|--------------------------------|
|0---2-------0---2-------0---2---|--------------------------------|
|--------------------------------|----0-------0-------0-----------|

 |       |       |       |        |       |       |       |        
|--------------------------------|--------------------------------|
|------------------------0---2---|--------------------------------|
|0---2-------0---2---------------|--------------------------------|
|--------------------------------|--------------------------------|

 |       |       |       |        |       |       |       |        
|--------------------------------|--------------------------------|
|--------------------------------|--------------------------------|
|0---2---2---0---2---2---0---2---|--------------------------------|
|--------------------------------|----0---0---0---0---0---0---0---|

 |       |       |       |        |       |       |       |        
|--------------------------------|--------------------------------|
|--------------------------------|--------------------------------|
|0---2---2---0---2---2---0---2---|--------------------------------|
|--------------------------------|----0---0---0---0---0---0---0---|

 |       |       |       |        |       |       |       |        
|--------------------------------|--------------------------------|
|--------------------------------|--------------------------------|
|0---2---2---0---2---2---0---2---|--------------------------------|
|--------------------------------|----0---0---0---0---0---0---0---|

 |       |       |       |        |       |       |       |        
|--------------------------------|--------------------------------|
|------------------------0---2---|----2---2---2---2---2---2---2---|
|0---2---2---0---2---2-----------|--------------------------------|
|--------------------------------|--------------------------------|

 |       |       |       |        |       |       |       |        
|--------------------------------|--------------------------------|
|--------------------------------|--------------------------------|
|0---2---2---0---2---2---0---2---|--------------------------------|
|--------------------------------|----0---0---0---0---0---0---0---|

 |       |       |       |        |       |       |       |        
|--------------------------------|--------------------------------|
|--------------------------------|--------------------------------|
|0---2---2---0---2---2---0---2---|--------------------------------|
|--------------------------------|----0---0---0---0---0---0---0---|

 |       |       |       |        |       |       |       |        
|--------------------------------|--------------------------------|
|--------------------------------|--------------------------------|
|0---2---2---0---2---2---0---2---|--------------------------------|
|--------------------------------|----0---0---0---0---0---0---0---|

 |       |       |       |        |       |       |       |        
|--------------------------------|--------------------------------|
|------------------------0---2---|------------------------0---2---|
|0---2---2---0---2---2-----------|--------------------------------|
|--------------------------------|--------------------------------|

 |       |       |       |        |       |       |       |        
|--------------------------------|--------------------------------|
|------------------------0-------|--------------------------------|
|----------------------------0---|----2---2-----------------------|
|--------------------------------|--------------------------------|


Created with TablEdit http://www.tabledit.com/
Comments