Tankcsapda - Agyarorsz G Chords & Tabs

 

Agyarorsz G Chords & Tabs

Tankcsapda Chords & Tabs

Version: 1 Type: Tab 0 ratings
1 star 2 stars 3 stars 4 stars 5 stars
comments

Agyarorsz G Tab

TANKCSAPDA - AGYARORSZÁG

TUNING:DADGBe

INTRO/VERSE(riff 1)                                                   4X
e-------------------------------I------------------------------I--------------------------
B-------------------------------I------------------------------I--------------------------
G-------------------------------I------------------------------I--------------------------
D-------------------------------I------------------------------I--------------------------
A--2H3-2-2H3-2-2H3-2-2H3-2-5-0--I-2H3-2-2H3-2-2H3-2-2H3-2-5-0--I--------------------------
E--2H3-2-2H3-2-2H3-2-2H3-2-5-0--I-2H3-2-2H3-2-2H3-2-2H3-2-5-0--I--------------------------


FIG.2                                                         
e-------------------------------------------------I
B-------------------------------------------------I
G------------------------------------------------oI
D------------------------------------------------oI
A-------------------------------------------------I
E--14p15-14-14p15-14-14p15-14-14p15-14-17-12------I

[ Tab from: http://www.guitartabs.cc/tabs/t/tankcsapda/agyarorsz_g_tab.html ]
CHORUS(WAH-WAH)
e-----------------------------------------------------------------------------------------
B------0------0------0-----0-----0-----0--0-----------------------------------------------
G------0------0------0-----0-----0-----0--0-----------------------------------------------
D-----------------------------------------------------------------------------------------
A--22-----33-----22----33----22----33----2---111------------------------------------------
E--22-----33-----22----33----22----33----2---111------------------------------------------
...ÉN VAGYOK A FEGYVER... 

RIFF 2
e--------------------------------------------------------------I--------------------------
B--------------------------------------------------------------I--------------------------
G--------------------------------------------------------------I--------------------------
D--------------------------------------------------------------I--------------------------
A--7-3-5-1-1111-7-3-5-1-1111-7-3-5-1-1111-7-3-5-1-1111---------I--------------------------
E--7-3-5-1-1111-7-3-5-1-1111-7-3-5-1-1111-7-3-5-1-1111---------I--------------------------

ÉLJEN A CSAPDA!!!!!!!!!!!!!!!!!!!!!!






























Comments