Tamia - Officially Missing You Chords & Tabs

 

Officially Missing You Chords & Tabs

Tamia Chords & Tabs

Version: 4 Type: Tab 1 rating
1 star 2 stars 3 stars 4 stars 5 stars
comments

Officially Missing You Tab

   
#----------------------------------PLEASE NOTE---------------------------------#
#This file is the author's own work and represents their interpretation of the #
#song. You may only use this file for private study, scholarship, or research. #
#------------------------------------------------------------------------------##

song			: Officially Missing You
artist			: Tamia
Transcribed by		: RossRyuSen


This song isn't really hard to play because the chords are very basic.

Compliment goes to all the people who first tabbed this song and post 
it over the internet. Though the tabs you posted were incomplete, it 
sure gave me all the idea i need to complete this tab. THANK YOU.

This tab is approximately 99.999999999 % correct and complete

On a personal note, I'd like to deidcate this song to the girl
I really miss. (she's from Calumpit, Bulacan, RP)

If you're familiar with the Power Tab Sofware,
you can download the ptb file of this song
the Official Website of Power Tab:
http://powertab.guitarnetwork.org  


 
                            
Chord Legend:

          Gmaj7                A/F#                D7sus2
       3 x 4 4 3 x          2 x 2 2 2 x         x x 0 2 1 0

          B7               Em7 or G5/E              Em7                
      x 2 4 2 3 2          0 x x 0 3 3          0 x x 0 3 3          

         Cmaj7                D5/B                  Dsus4
      x 3 5 4 5 3          x 2 0 2 x x          x x 0 2 3 3

	  C5                   B5                   A5
      x 3 x x x 3          x 2 x x x 2          5 x x x 5 x


Gtr I (E A D G B E) 	- Main Instrument
Gtr II (E A D G B E) 	- Just the sweet orchestra playing in the end.

 INTRO:

  Gmaj7             A/F# B7           Em7                 D7sus2
 4/4
  Gtr I
|-----------------|-----------------|---3--3--(3)-3-(3)-|---0--0--(0)----|
|---3--3----3-(3)-|---2--4----4-(4)-|---3---------3-(3)-|---1--1--(1)----|
|---4--4----4-(4)-|---2-------2-(2)-|---0---------0-(0)-|---2--2--(2)----|
|---4--4----4-(4)-|---2-------4-(4)-|-------------------|-0----0--(0)----|
|-----------------|------2--2-2-(2)-|-------------------|----------------|
|-3-------3-------|-2---------------|-0----0--(0)-------|----------------|


  Cmaj7               Bm7  Em7             Am7              Dsus4
|-------------3-(3)-|---2--2s=3----3-(3)-|---0--0----0-0-|--2s3-3----(3)---|
|------5--(5)-5-(5)-|---3----------3-(3)-|---1--1----1-1-|-----------------|
|---4---------4-(4)-|--------------------|---0--0----0-0-|-----------------|
|---5---------------|------------2-------|-2-------2-----|--0---0----(0)---|
|-3-3--3--(3)-------|-2------------------|-0-------0-----|-----------------|
|-------------------|------0-(0)---------|---------------|-----------------|


   VERSE ONE and TWO
    Gmaj7             A/F# B7           Em7                 D7sus2
||------------------|-----------------|---3--3--(3)-3-(3)-|---0--0--(0)----|
||o---3--3----3-(3)-|---2--4----4-(4)-|---3---------3-(3)-|---1--1--(1)----|
||----4--4----4-(4)-|---2-------2-(2)-|---0---------0-(0)-|---2--2--(2)----|
||----4--4----4-(4)-|---2-------4-(4)-|-------------------|-0----0--(0)----|
||o-----------------|------2--2-2-(2)-|-------------------|----------------|
||--3-------3-------|-2---------------|-0----0--(0)-------|----------------|


  Cmaj7               Bm7  Em7             Am7              Dsus4
|-------------3-(3)-|---2--2s=3----3-(3)-|---0--0----0-0-|--2s3-3----(3)----||
|------5--(5)-5-(5)-|---3----------3-(3)-|---1--1----1-1-|-----------------o||
|---4---------4-(4)-|--------------------|---0--0----0-0-|------------------||
|---5---------------|------------2-------|-2-------2-----|--0---0----(0)----||
|-3-3--3--(3)-------|-2------------------|-0-------0-----|-----------------o||
|-------------------|------0-(0)---------|---------------|------------------||


 FIRST CHORUS:
  Gmaj7             A/F# B7           Em7                 D7sus2
|-----------------|-----------------|---3--3--(3)-3-(3)-|---0--0--(0)---|
|---3--3----3-(3)-|---2--4----4-(4)-|---3---------3-(3)-|---1--1--(1)---|
|---4--4----4-(4)-|---2-------2-(2)-|---0---------0-(0)-|---2--2--(2)---|
|---4--4----4-(4)-|---2-------4-(4)-|-------------------|-0----0--(0)---|
|-----------------|------2--2-2-(2)-|-------------------|---------------|
|-3-------3-------|-2---------------|-0----0--(0)-------|---------------|


  Cmaj7               Bm7  Em7             Am7              Dsus4
|-------------3-(3)-|---2--2s=3----3-(3)-|---0--0----0-0-|--2s3-3----(3)---|
|------5--(5)-5-(5)-|---3----------3-(3)-|---1--1----1-1-|-----------------|
|---4---------4-(4)-|--------------------|---0--0----0-0-|-----------------|
|---5---------------|------------2-------|-2-------2-----|--0---0----(0)---|
|-3-3--3--(3)-------|-2------------------|-0-------0-----|-----------------|
|-------------------|------0-(0)---------|---------------|-----------------|


 VERSE THREE
  Gmaj7             A/F# B7           Em7                 D7sus2
|-----------------|-----------------|---3--3--(3)-3-(3)-|---0--0--(0)---|
|---3--3----3-(3)-|---2--4----4-(4)-|---3---------3-(3)-|---1--1--(1)---|
|---4--4----4-(4)-|---2-------2-(2)-|---0---------0-(0)-|---2--2--(2)---|
|---4--4----4-(4)-|---2-------4-(4)-|-------------------|-0----0--(0)---|
|-----------------|------2--2-2-(2)-|-------------------|---------------|
|-3-------3-------|-2---------------|-0----0--(0)-------|---------------|


  Cmaj7               Bm7  Em7             Am7               D5/B
|-------------3-(3)-|---2--2s=3----3-(3)-|---0--0----0-(0)-|-----------------|
|------5--(5)-5-(5)-|---3----------3-(3)-|---1--1----1-(1)-|-----------------|
|---4---------4-(4)-|--------------------|---0--0----0-(0)-|---2--2----(2)---|
|---5---------------|------------2-------|-2-------2-------|-0---------------|
|-3-3--3--(3)-------|-2------------------|-0-------0-------|---2--2----(2)---|
|-------------------|------0-(0)---------|-----------------|-----------------|


VERSE FOUR:
  Cmaj7           Bm7             Em7             A
|---3--3----(3)-|---------------|---------------|---------------|
|---5--5----(5)-|---3--3----(3)-|---8--8----(8)-|---5--5----(5)-|
|---4--4----(4)-|---2--2----(2)-|---7--7----(7)-|---6--6----(6)-|
|---5--5----(5)-|---4--4----(4)-|---9--9----(9)-|---7--7----(7)-|
|-3-------------|-2-------------|-7-------------|---------------|
|---------------|---------------|-0-------------|-5-5--5--------|


  Cmaj7           Bm7  Em7           Am7            Dsus4
|---------------|---2--2s=3--(3)---|-0----(0)----|--2s3-3----(3)---|
|---------------|---3--------------|-1----(1)----|-----------------|
|---4--4----(4)-|------------------|-------------|-----------------|
|---5--5----(5)-|------------------|-------------|--0---0----(0)---|
|-3-3--3----(3)-|-2----------------|-0----(0)----|-----------------|
|---------------|------0-(0)-(0)---|-------------|-----------------|

[ Tab from: http://www.guitartabs.cc/tabs/t/tamia/officially_missing_you_tab_ver_4.html ]
 SECOND CHORUS:
  Gmaj7             A/F#              Em7                 D7sus2
|-----------------|-----------------|---3--3--(3)-3-(3)-|---0--0--(0)---|
|---3--3----3-(3)-|---2--4----4-(4)-|---3---------3-(3)-|---1--1--(1)---|
|---4--4----4-(4)-|---2-------2-(2)-|---0---------0-(0)-|---2--2--(2)---|
|---4--4----4-(4)-|---2-------4-(4)-|-------------------|-0----0--(0)---|
|-----------------|------2--2-2-(2)-|-------------------|---------------|
|-3-------3-------|-2---------------|-0----0--(0)-------|---------------|


  Cmaj7               Bm7  Em7             Am7              Dsus4
|-------------3-(3)-|---2--2s=3----3-(3)-|---0--0----0-0-|--2s3-3----(3)---|
|------5--(5)-5-(5)-|---3----------3-(3)-|---1--1----1-1-|-----------------|
|---4---------4-(4)-|--------------------|---0--0----0-0-|-----------------|
|---5---------------|------------2-------|-2-------2-----|--0---0----(0)---|
|-3-3--3--(3)-------|-2------------------|-0-------0-----|-----------------|
|-------------------|------0-(0)---------|---------------|-----------------|


BRIDGE:
  F     G       C           F     G       C     C5 B5
|-!1----------|-^3--------|-!1----------|-^3----3--2--|
|-!1----^3----|-^5--------|-!1----^3----|-^3----------|
|-!2----^4----|-^5--------|-!2----^4----|-^5----------|
|-!3----^5----|-^5--------|-!3----^5----|-^5----------|
|-!3----^5----|-^3--------|-!3----^5----|-^3----3--2--|
|-!1----^3----|-----------|-!1----^3----|-------------|


  Am7   B7      Em7    A5                  Am7                Dsus4
|-^0----^2----|----10-------|------------|-^3----(3)-----3-|--2s3-3----(3)----|
|-^1----^4----|-8---8--5----|-(5)--------|-^1----(1)-------|------------------|
|-^0----^2----|-------------|------------|-^0----(0)---0---|------------------|
|-^2----^4----|-------------|------------|-^2----(2)-2-----|--0---0----(0)----|
|-^0----^2----|-7---7-------|------------|-^0----(0)-------|------------------|
|-------------|--------5----|-(5)--------|-----------------|------------------|


 THIRD CHORUS:
  Gmaj7             A/F# B7           Em7                 D7sus2
|-----------------|-----------------|---3--3--(3)-3-(3)-|---0--0--(0)---|
|---3--3----3-(3)-|---2--4----4-(4)-|---3---------3-(3)-|---1--1--(1)---|
|---4--4----4-(4)-|---2-------2-(2)-|---0---------0-(0)-|---2--2--(2)---|
|---4--4----4-(4)-|---2-------4-(4)-|-------------------|-0----0--(0)---|
|-----------------|------2--2-2-(2)-|-------------------|---------------|
|-3-------3-------|-2---------------|-0----0--(0)-------|---------------|


  Cmaj7               Bm7  Em7             Am7              Dsus4
|-------------3-(3)-|---2--2s=3----3-(3)-|---0--0----0-0-|--2s3-3----(3)---|
|------5--(5)-5-(5)-|---3----------3-(3)-|---1--1----1-1-|-----------------|
|---4---------4-(4)-|--------------------|---0--0----0-0-|-----------------|
|---5---------------|------------2-------|-2-------2-----|--0---0----(0)---|
|-3-3--3--(3)-------|-2------------------|-0-------0-----|-----------------|
|-------------------|------0-(0)---------|---------------|-----------------|


 ENDING:
  Gmaj7             A/F# B7           Em7                 D7sus2
|-----------------|-----------------|---3--3--(3)-3-(3)-|---0--0--(0)---|
|---3--3----3-(3)-|---2--4----4-(4)-|---3---------3-(3)-|---1--1--(1)---|
|---4--4----4-(4)-|---2-------2-(2)-|---0---------0-(0)-|---2--2--(2)---|
|---4--4----4-(4)-|---2-------4-(4)-|-------------------|-0----0--(0)---|
|-----------------|------2--2-2-(2)-|-------------------|---------------|
|-3-------3-------|-2---------------|-0----0--(0)-------|---------------|


  Cmaj7               Bm7  Em7
|-------------3-(3)-|---2--2s=3----3-(3)-|
|------5--(5)-5-(5)-|---3----------3-(3)-|
|---4---------4-(4)-|--------------------|
|---5---------------|------------2-------|
|-3-3--3--(3)-------|-2------------------|
|-------------------|------0-(0)---------|
|
|      Gtr II
|-------------------|--------------------|
|-------------------|--------------3-----|
|-------------------|--------------7-----|
|-------------------|--------------------|
|-------------------|--------------------|
|-------------------|--------------------|


  Am7
|---0---0----0--0--|--------------------|
|---1---1----1--1--|--------------------|
|---0---0----0--0--|--------------------|
|-2--------2-------|--------------------|
|-0--------0-------|--------------------|
|------------------|--------------------|
|
|------------------|--2s3-3----3-5-7-8--|
|-1-0--------------|--------------------|
|-5-4-2-0------(0)-|-----------0-2-4-5--|
|-----7-5------(5)-|--0---0-------------|
|------------------|--------------------|
|------------------|--------------------|


  Gtr II
|-7------(7)-10-|-9---5----(5)-|-7------(7)-10-|-13---12----10-|
|---------------|--------------|---------------|---------------|
|-4------(4)--7-|-6---2----(2)-|-4------(4)--7-|-10----9-----7-|
|---------------|--------------|---------------|---------------|
|---------------|--------------|---------------|---------------|
|---------------|--------------|---------------|---------------|


|-12----(12)-14-15-17-|-15----(15)----------------|
|---------------------|-------------12-10-9-12----|
|--9-----(9)-11-12-14-|-12----(12)----------------|
|---------------------|--------------9--7-6--9----|
|---------------------|---------------------------|
|---------------------|---------------------------|


  Gtr II
|--------------|--2s3-3----(3)--*|
|-13---12---8--|----------------*|
|--------------|----------------*|
|-10----9---5--|--0---0----(0)--*|
|--------------|----------------*|
|--------------|----------------*|


Lyrics:

Hmm... 
Ooh...ooh... 

Verse 1
All I hear is raindrops falling on the rooftop 
Oh baby, tell me why’d you have to go 
‘Cause this pain I feel it won’t go away 
And today I’m officially missin’ you 

Verse 2
Abducted from this heartache, I could escape 
But I’ve heard it long enough to know 
There ain’t no way 
And today I’m officially missing you 

Chorus
Ooh...can’t nobody do it like you 
Said every little thing you do, hey, baby 
Sid it stays on my mind 
And I-I’m officially 

Verse 3
All I do is lay around, 2 years full of tears 
From looking at your face all over 
Just a week ago you were my baby 
Now I don’t even know you at all, I don’t know you at 
all 

Verse 4
Well, I wish that you would call me right now 
So that I could get through to you somehow 
But I guess it’s safe to say, baby 
Safe to say that I-I’m officially missin’ you 

Chorus
Ooh...can’t nobody do it like you 
Said every little thing you do, hey, baby 
Said it stays on my mind 
And I-I’m officially 

Bridge 
Well, I thought I could just get over you, baby 
But I see there’s something I just can’t do 
From the way you would hold me 
To the sweet things you told me 
I just can’t find a way to let no one through 

Chorus
Ooh...can’t nobody do it like you 
Said every little thing you do, hey, baby 
Said it stays on my mind 
And I-I’m officially 

Ending
It’s official 
Hoo, you know that I’m missin’ you, yeah, yes 
All I hear is raindrops, oh, yeah 
And I’m officially missin’ you

Comments