Tame Impala - Why Wont They Talk To Me Chords & Tabs

 

Why Wont They Talk To Me Chords & Tabs

Tame Impala Chords & Tabs

Version: 1 Type: Bass Tab 0 ratings
1 star 2 stars 3 stars 4 stars 5 stars
comments

Why Wont They Talk To Me Bass Tab

   
Band: Tame Impala
Song: Why Won't They Talk To Me?
Album: Lonerism
Tabbed by: choke383
Normal Tuning: GDAE


0.31
G|----------------------------------------------------------------|
D|5-5-5-5-5-5-5-5-5-5-5-5-5-5-5-5-5-5-5-5-5-5-5-5-4-4-4-4-4-4-4-4-|
A|----------------------------------------------------------------|
E|----------------------------------------------------------------|

G|------------------------------------------------------------------------|
D|5-5-5-5-5-5-5-5-5-5-5-5-5-5-5-5-5-5-5-5-5-5-5-5/11-11-11-11-11-11-11-11-|
A|------------------------------------------------------------------------|
E|------------------------------------------------------------------------|

G|----------------------------------------------------------------|
D|5-5-5-5-5-5-5-5-5-5-5-5-5-5-5-5-5-5-5-5-5-5-5-5-4-4-4-4-4-4-4-4-|
A|----------------------------------------------------------------|
E|----------------------------------------------------------------|

G|------------------------------------------7-7-7-6-6-6-6-6-6-6-7-|
D|5-5-5-5-5-5-5---5-5-5-5-5---5---5-5-5-5-5-----------------------|
A|--------------5-----------5---5---------------------------------|
E|----------------------------------------------------------------|


1.07
G|----------------------------------------------------------------|
D|----------------------------------------------------4-----------|
A|0-------------------------0-------------------------------------|
E|-----------------------------------3----------------------------|


1.23
G|----------------------------------------------------------------|
D|5-5-5-5-5-5-5-5-5-5-5-5-5-5-5-5-5-5-5-5-5-5-5-5-4-4-4-4-4-4-4-4-|
A|----------------------------------------------------------------|
E|----------------------------------------------------------------|

G|----------------------------------------------------------------|
D|5-5-5-5-5-5-5-5-5-5-5-5-5-5-5-5-5-5-5-5-5-5-5-5/11~-------------|
A|----------------------------------------------------------------|
E|----------------------------------------------------------------|

G|----------------------------------------------------------------|
D|5-5-5-5-5-5-5-5-5-5-5-5-5-5-5-5-5-5-5-5-5-5-5-5-4-4-4-4-4-4-4-4-|
A|----------------------------------------------------------------|
E|----------------------------------------------------------------|x2

G|----------------------------------------------------------6~----|
D|5-5-5-5-5-5-5-5-5-5-5-5-5-5-5-5-5-5-5-5-5-5-5-5-4-4-4-4-4-------|
A|----------------------------------------------------------------|
E|----------------------------------------------------------------|

G|--------------------------------------------------6-6-6-6-6-6-6-|
D|5-5-5-5-5-5-5-5-5-5-5-5-5-5-5-5-5-5-5-5-5-5-5-5-4---------------|
A|----------------------------------------------------------------|
E|----------------------------------------------------------------|

G|----------------------------------------------------------------|
D|5-5-5-5-5-5-5-5-5-5-5-5-5-5-5-5-5-5-5-5-5-5-5-5-4-4-4-4-4-4-4-4-|
A|----------------------------------------------------------------|
E|----------------------------------------------------------------|
[ Tab from: http://www.guitartabs.cc/tabs/t/tame_impala/why_wont_they_talk_to_me_btab.html ]
G|----------------------------------------------------------------|
D|5-5-5-5-5-5-5-5-5-5-5-5-5-5-5-5-5-5-5-5-5-5-5-5-----------------|
A|------------------------------------------------4-4-4-4-4-4-4-4-|
E|----------------------------------------------------------------|

G|----------------------------------------------------------------|
D|5-5-5-5-5-5-5-5-5-5-5-5-5-5-5-5-5-5-5-5-5-5-5-5-4-4-4-4-4-4-4-4-|
A|----------------------------------------------------------------|
E|----------------------------------------------------------------|

G|--------------------------------7-7-7-6-6-4-4-4-----------------|
D|5-5-5-5-5-5-5-5-5-5-5-5-5-5-5-5-----------------7-7-7-7-7-4-4---|
A|----------------------------------------------------------------|
E|----------------------------------------------------------------|

G|----------------------------------------------------------------|
D|5-5-5-5-5-5-5-5-5-5-5-5-5-5-5-5-5-5-5-5-5-5-5-5-4-4-4-4-4-4-4-4-|
A|----------------------------------------------------------------|
E|----------------------------------------------------------------|

G|------------------------------------------4-4-4-6-6-6-6-6-6-6-7~~~~--|
D|5-5-5-5-5-5-5-5-5-5-5-5-5-5-5-5-5-5-5-7-7----------------------------|
A|---------------------------------------------------------------------|
E|---------------------------------------------------------------------|


3.13
G|------------------------------------------------------|
D|------------------------------7---7------7-----7------|
A|-----5---5------5---5---------------------------------|
E|0-3----------3----------5-5-----------5----5-5---5-5--|

G|-----------------------------------------------7-9--|
D|----------------------------7---7-----7------7------|
A|---5---5------5---5---------------------------------|
E|3----------3----------5-5---------5-5----5-5--------|


3.58
G|----------------------------------------------------------------|
D|5-5-5-5-5-5-5-5-5-5-5-5-5-5-5-5-5-5-5-5-5-5-5-5-4-4-4-4-4-4-4-4-|
A|----------------------------------------------------------------|
E|----------------------------------------------------------------|

G|------------------------------------------------------------------------|
D|5-5-5-5-5---5-5-5-5-5-5-5---5-5-5-5-5-5-5-5---5/11-11-11-11-11-11-11-11-|
A|----------5---------------5---------------------------------------------|
E|------------------------------------------------------------------------|

G|----------------------------------------------------------------|
D|5-5-5-5-5-5-5-5-5-5-5-5-5-5-5-5-5-5-5-5-5-5-5-5-4-4-4-4-4-------|
A|----------------------------------------------------------4-4-4-|
E|----------------------------------------------------------------|

G|----------------------------------------------------------------|
D|5-5-5-5-5-5-5-5-5-5-5-5-5-5-5-5-5-5-5-5-5-5-5-5-4-4-4-4-4-4-----|
A|------------------------------------------------------------4~--|
E|----------------------------------------------------------------|

G|----------------------------------------------------------------|
D|5-5-5-5-5-5-5-5-5-5-5-5-5-5-5-5-5-5-5-5-5-5-5-5-----------------|
A|------------------------------------------------4-4-4-4-4-4-4-4-|
E|----------------------------------------------------------------|

G|--------------------------------7-7-7-6-6-4-4-4-----------------|
D|5-5-5-5-5-5-5-5-5-5-5-5-5-5-5-5-----------------7~~-------------|
A|----------------------------------------------------------------|
E|----------------------------------------------------------------|


Any comments, questions or jokes send to style444@hotmail.com
Comments