Tame Impala - Apocalypse Dreams Chords & Tabs

 

Apocalypse Dreams Chords & Tabs

Tame Impala Chords & Tabs

Version: 2 Type: Bass Tab 0 ratings
1 star 2 stars 3 stars 4 stars 5 stars
comments

Apocalypse Dreams Bass Tab

Band: Tame Impala
Song: Apocalypse Dreams
Album: Lonerism
Tabbed by: choke383
Normal Tuning: GDAE


G|--------------------------------------------------------7h8-7------|
D|-----------------------8~---8-88-78---87----------------------8h10-|
A|10-10-1010---10-10-7-7---------------------56-6-6---6-6------------|
E|-----------10-------------------------------------6----------------|x2

G|--------------------------------------------------------7h8-7------|
D|-----------------------8h1088-88-78---87----------------------8h10-|
A|10-10-1010---10-10-7-7---------------------56-6-6---6-6------------|
E|-----------10-------------------------------------6----------------|


0.34
G|------------8h10~--8--------------------------8h10~--8----8~~~~~----------|
D|----------8----------11------------------8-11----------11-----------------|
A|9--9----9---------------6--6---6-6-6-8-9------------------------------8~--|
E|------9-----------------------6-6-----------------------------------------|

0.49
G|--------------------------------------------------------7h8-7------|
D|-----------------------8~---8-88-78---87----------------------8h10-|
A|10-10-1010---10-10-7-7---------------------56-6-6---6-6------------|
E|-----------10-------------------------------------6----------------|x2

G|--------------------------------------------------------7h8-7------|
D|-----------------------8h1088-88-78---87----------------------8~---|
A|10-10-1010---10-10-7-7---------------------56-6-6---6-6------------|
E|-----------10-------------------------------------6----------------|

G|--------------------------------------------------------7h8-7--|
D|-----------------------8h1088-88-78---87-----------------------|
A|10-10-1010---10-10-7-7---------------------56-6-6---6-6--------|
E|-----------10-------------------------------------6------------|


1.34
G|------------8h10~--8--------------------------8h10~--8----8~~~~~---8h10--|
D|----------8----------11------------------8-11----------11----------------|
A|9--9----9---------------6--6---6-6-6-8-9---------------------------------|
E|------9-----------------------6-6----------------------------------------|
[ Tab from: http://www.guitartabs.cc/tabs/t/tame_impala/apocalypse_dreams_btab_ver_2.html ]
                                   G|-------------8h10~-8------|
                     left          D|--------------------11----|
                     speaker       A|--------------------------|
                                   E|--------------------------|

G|------------8h10~--8--------------------------8h10~--8----8~~~~~---------|
D|----------8----------11------------------8-11----------11----------------|
A|9--9----9---------------6--6---6-6-6-8-9-----------------------------8~--|
E|------9-----------------------6-6----------------------------------------|


2.26
G|--------------------------------------------------------7h8-7------|
D|-----------------------8~---8-88-78---87----------------------8h10-|
A|10-10-1010---10-10-7-7---------------------56-6-6---6-6------------|
E|-----------10-------------------------------------6----------------|x2

G|--------------------------------------------------------7h8--|
D|-----------------------8~---8-88-78---87---------------------|
A|10-10-1010---10-10-7-7---------------------56-6-6---6-6------|
E|-----------10-------------------------------------6----------|


3.00
G|------------8h10~-----------------------------8h10~--8----8~~~~~8--8h10--|
D|----------8------------------------------8-11----------11----------------|
A|9--9----9--------8~~~---6--6---6-6-6-8-9---------------------------------|
E|------9-----------------------6-6----------------------------------------|

G|------------8h10~--8--------------------------8h10~--8----8~~~~~---------|
D|----------8----------11------------------8-11----------11----------------|
A|9--9----9---------------6--6---6-6-6-8-9---------------------------------|
E|------9-----------------------6-6----------------------------------------|


3.30
G|------------8h10~--8--------------------------8h10~--8----8~~~~~-7~~~-6~~~~~~~~~~~--|
D|----------8----------11------------------8-11----------11---------------------------|
A|9--9----9---------------6--6---6-6-6-8-9--------------------------------------------|
E|------9-----------------------6-6---------------------------------------------------|x7



Any comments, questions or jokes send to style444@hotmail.com
Comments