Tallman - Sinker Chords & Tabs

 

Sinker Chords & Tabs

Tallman Chords & Tabs

Version: 1 Type: Tab 0 ratings
1 star 2 stars 3 stars 4 stars 5 stars
comments

Sinker Tab

   
 !!!Artist: Tallman
Song: Sinker (Demo)
Album: Inoculation -Indie Demo- (www.mp3.com/Tallman)
Tabbed by: Adam Muirhead (mada_emanon@yahoo.com)
Tabbed for: The Ladder (http://theladder.audioearth.com)
The Ladder - Your online source for Tallman!
Tallman is: 	Jason Toner - Vocals (Lyrics)
	    	Andrew Lauzon - Bass (FX)
	    	Paul Agricola - Guitar
	    	Rick Welbanks - Drums

RIFF A
e-----------------------------------|
B-----------------------------------|
G-----------------------------------|
D-0-3-5-0-3-2-0-3-2-0-3-4-0-3-2-0---|
A-----------------------------------|
D-----------------------------------|
That's not 100%, best I can guess

RIFF B
e----------------------------------|
B----------------------------------|
G-12-12-14-14-7/10\8-8-8-8-8-8-8-8-|
D----------------------------------|
A----------------------------------|
D----------------------------------|

RIFF C
e-----------------------|
B-----------------------|
G-----------------------|
D-5-5-5-5-5-5-5-5-5-5-5-|
A-5-5-5-5-5-5-5-5-5-5-5-|
D-5-5-5-5-5-5-5-5-5-5-5-|

RIFF D
e----------------------------------|
B----------------------------------|
G----------------------------------|
D-5-3--7-5-5--3-0--5-3--7-5-5--3-0-|
A-5-3--7-5-5--3-0--5-3--7-5-5--3-0-|
D-5-3--7-5-5--3-0--5-3--7-5-5--3-0-|
[ Tab from: http://www.guitartabs.cc/tabs/t/tallman/sinker_tab.html ]
RIFF E
e-----------------------------|
B-----------------------------|
G-----------------------------|
D-7-7-7-8--8-7-7-7-8--8-7-7-8-|
A-7-7-7-8--8-7-7-7-8--8-7-7-8-|
D-7-7-7-8--8-7-7-7-8--8-7-7-8-|
THEN
e-----------------------------|
B-----------------------------|
G-----------------------------|
D-----------------------------|
A-----------------------------|
D-7-8-8-8--8-7-8-8-8--8-7-8-8-|

RIFF F
e-----------------------|
B-----------------------|
G-----------------------|
D-8-7--8-8--8-8-8--8-88-|
A-8-7--8-8--8-8-8--8-88-|
D-8-7--8-8--8-8-8--8-88-|

This is one of the few tallman songs I haven't
seen live and been able to pick off the guitar
parts, but this is what I came up with by ear
so work with it and play what sounds right to
you. I know this probably isn't right, but I'm
sure some of it is.

LYRICS:
I open up my mind 
only to confine 
choices in their time 

you take a different view 
only to undo 
what comes close to you 

we float so gracefully 
thinking carelessly 
so aware and free 

if you can't learn to love 
you should learn to live this way 

swallowed by hate 
sucked in 
flushed down 
the more you swim the more you drown 

if you can't learn to love 
you should learn to live this way 
if you can't learn to live 
find yourself another way 
if you can't learn to love 
find a hole and crawl away 

swallowed my hate 
sucked in 
flushed down 
the more you swim the more you drown
Comments