Tallman - Ladder Chords & Tabs

 

Ladder Chords & Tabs

Tallman Chords & Tabs

Version: 1 Type: Tab 0 ratings
1 star 2 stars 3 stars 4 stars 5 stars
comments

Ladder Tab

   
Artist: Tallman
Song: The Ladder
Album: Renoculation (www.mp3.com/Tallman)
Tabbed by: Adam Muirhead (mada_emanon@yahoo.com)
Tabbed for: The Ladder (http://theladder.audioearth.com)
The Ladder - Your online source for Tallman!
Tallman is: 	Jason Toner - Vocals (Lyrics)
	    	Andrew Lauzon - Bass (FX)
	    	Paul Agricola - Guitar
	    	Rick Welbanks - Drums

Drop D (DADGBe)
The intro is 100% correct, the rest is guessing.

INTRO (RIFF A)
0:07 - 2:11
e--------------------------------------|
B--------------------------------------|
G--------------------------------------|
D--10-10-10-10-8-8-7-7-----------------|
A--------------------------------------|
D----------------------0-0-0-0-0-0-0-0-|
FOLLOWED BY
e---------------------------------------|
B---------------------------------------|
G---------------------------------------|
D--10-10-10-10-8-8-12-------------------|
A---------------------------------------|
D---------------------0-0-0-0-0-0-0-0-0-|

The intro riff is played through almost the entire song
(This is one of the only two Tallman songs using 2 guitars)
Jay plays the intro, Paul plays the heavy stuff.

This is a guess:
RIFF B
e---------------------|
B---------------------|
G---------------------|
D-3-5-1---3-2-1-0-3-0-|
A-3-5-1---3-2-1-0-3-0-|
D-3-5-1---3-2-1-0-3-0-|

3:01 - 4:13 
(There's an underlying guitar part I don't know)
[ Tab from: http://www.guitartabs.cc/tabs/t/tallman/ladder_tab.html ]
Riff A again, with distortion, no open notes.
One note is played an extra time, 

4:14 - 5:09 - I don't know

5:09 - 5:30 - Riff B

5:31 - 6:27 - I don't know

The song goes out on this part:

e------------------------------------------|
B------------------------------------------|
G------------------------------------------|
D-10-10-10-10-8-8-7---10-10-10-10-10-8-8-0-|
A------------------------------------------|
D------------------------------------------|

LYRICS:
in a darkened room, sun burned a hole in your eyes 
afraid to leave the tomb, afraid to look at the sky 
you will be waking soon, come on and open your eyes 
you will be waking soon, come on see through the disguise 

head in a grey balloon, waiting to witness a sign 
head in a grey balloon, immune to passing of time 
you will be waking soon, come on and open your eyes 
you will be waking soon, come on see through the disguise 

your hollow apathy, is not concerning me 
stuck somewhere inbetween, a dying wish and a dream 
question philosophy, reject hypocrisy 
stuck somewhere inbetween, a dying wish and a dream 

reaching out for something, something I cannot find 
reaching out for someone, someone is left behind 

your hollow apathy, is not concerning me 
stuck somewhere inbetween, a dying wish and a dream 
question philosophy, reject hypocrisy 
stuck somewhere inbetween, a dying wish and a dream 

come on and open your eyes
Comments