Talking Heads - Psycho Killer Acoustic Chords & Tabs

 

Psycho Killer Acoustic Chords & Tabs

Talking Heads Chords & Tabs

Version: 1 Type: Tab 0 ratings
1 star 2 stars 3 stars 4 stars 5 stars
comments

Psycho Killer Acoustic Tab

   
Psycho Killer Acoustic
From Live DVD "Stop Making Sense"

You need to watch the dvd to really get the strumming pattern but everything else is 
here

intro
E --------------------------------------------------------------------------|
B --------------------------------------------------------------------------|
G -------------5---------------5---------------5---------------4------------|
D ---7-7-7-----7-----7-7-7-----7-----7-7-7-----7-----7-7-7-----5------------|
A ---0-0-0-----0-----0-0-0-----0-----0-0-0-----0-----0-0-0-----5------------|
E ---5-5-5-----5-----5-5-5-----5-----5-5-5-----5-----5-5-5------------------|
[ Tab from: http://www.guitartabs.cc/tabs/t/talking_heads/psycho_killer_acoustic_tab.html ]
           Am                                  G
Verse(3x)      Can't seem to face up to the facts....
E ---------5----------------------------------3---- ||
B ---------5----------------------------------3----.||
G ---------5----------------------------------4---- ||
D ---------7----------------------------------5---- ||
A ---0-----0---------------------------------------.||
E --------(5)-------------------------------------- ||

          Am                                G    F
 Verse(4th time)                                      Psycho killer
E ---------5--------------------------------3----1-----------------3-----5 |
B ---------5--------------------------------3----1-----------------3-----5 |
G ---------5--------------------------------4----2-----------------4-----5 |
D ---------7--------------------------------5----3-----------------5-----7 |
A ---0-----0-------------------------------------3-----------------5-----0 |
E --------(5)------------------------------------1-----------------3----(5)|
Comments