Talking Heads - Found A Job Stop Making Sense Chords & Tabs

 

Found A Job Stop Making Sense Chords & Tabs

Talking Heads Chords & Tabs

Version: 1 Type: Bass Tab

Found A Job Stop Making Sense Bass Tab

Found A Job Bass Tabs

Standard Tuning

Verse 5x:

G----------------------------------------------------------------------------------------|
D----------------------------------------4h5h7----4h5h7---4h5h7---4h5h7-9p7-9p7-9p7-9p7--|
A----------454--------------454----55---------55-------55--------55----------------------|
E-555557-----75-555557-----75-- ---------------------------------------------------------|

Chorus:
G---------------------------------------------------------------------------------------|
D-------------------------97------7-----9--7-------7-----9--7--------------4------------|
A-7-10-7-5~7-10-7-5~---97~9--9-7---9-9-9~9--9-7---9-9-9~474-----4-2~~-------------------|
E----------------------------------------------------------------------------7----------|

Verse 3x:
G----------------------------------------------------------------------------------------|
D----------------------------------------4h5h7----4h5h7---4h5h7---4h5h7-9p7-9p7-9p7-9p7--|
A----------454--------------454----55---------55-------55--------55----------------------|
E-555557-----75-555557-----75-- ---------------------------------------------------------|

[ Tab from: http://www.guitartabs.cc/tabs/t/talking_heads/found_a_job_stop_making_sense_btab.html ]
Chorus:
G---------------------------------------------------------------------------------------|
D-------------------------97------7-----9--7-------7-----9--7--------------4------------|
A-7-10-7-5~7-10-7-5~---97~9--9-7---9-9-9~9--9-7---9-9-9~474-----4-2~~-------------------|
E----------------------------------------------------------------------------7----------|

Verse 4x:
G----------------------------------------------------------------------------------------|
D----------------------------------------4h5h7----4h5h7---4h5h7---4h5h7-9p7-9p7-9p7-9p7--|
A----------454--------------454----55---------55-------55--------55----------------------|
E-555557-----75-555557-----75-- ---------------------------------------------------------|

Chorus:
G---------------------------------------------------------------------------------------|
D-------------------------97------7-----9--7-------7-----9--7--------------4------------|
A-7-10-7-5~7-10-7-5~---97~9--9-7---9-9-9~9--9-7---9-9-9~474-----4-2~~-------------------|
E----------------------------------------------------------------------------7----------|

Hit it!:
10x:
G------------------------------------------------------------------------------------------|
D------------------------------------------4h5h7----4h5h7---4h5h7---4h5h7-9p7-9p7-9p7-9p7--|
A------------454--------------454----55---------55-------55--------55----------------------|
E-sl555557-----75-555557-----75-- ---------------------------------------------------------|