Talent Billy - Try Honesty Chords & Tabs

 

Try Honesty Chords & Tabs

Talent Billy Chords & Tabs

Version: 2 Type: Bass Tab 0 ratings
1 star 2 stars 3 stars 4 stars 5 stars
comments

Try Honesty Bass Tab

Billy Talent-Try Honesty

INTRO
3X
G-------------------------------
D-------------------------------
A-------------------------------
E-44-44444-22-22222---4---0-----

CHORUS
10X
G-------------------------------
D-------------------------------
A-------------------------------
E-4-0---------------------------

VERSE
4X
G-------------------------------
D-------------------------------
A-------------------------------
E-999999-777777-444444-222222---

CHORUS2
10X
G-------------------------------
D-------------------------------
A-------------------------------
E-4-0---------------------------

VERSE2
4X
G-------------------------------
D-------------------------------
A-------------------------------
E-999999-777777-444444-222222---

[ Tab from: http://www.guitartabs.cc/tabs/t/talent_billy/try_honesty_btab_ver_2.html ]
3
G-------------------------------
D-------------------------------
A-------------------------------
E-4444-0000-3333-0000-----------

GUITAR PART

3X
G-------------------------------
D-------------------------------
A-------------------------------
E-99999-777777-444444-22-44-----

4X
G-------------------------------
D-------------------------------
A-------------------------------
E-999999-777777-444444-222222---

2X
G-------------------------------
D-------------------------------
A--7-9-7---5-7-5----------------
E-9------7-------4444444-222222-

ENDING
1X
G--------------------------------
D--------------------------------
A--7-9-7---5-7-5---2-4-2--0-2-0--
E-9------7-------2-------2------4




ANY PROBLEMS EMAIL 
BASSPLAYER_4@HOTMAIL.COM
Comments