Talent Billy - River Below Chords & Tabs

 

River Below Chords & Tabs

Talent Billy Chords & Tabs

Version: 2 Type: Tab 3 ratings
1 star 2 stars 3 stars 4 stars 5 stars
comments

River Below Tab

   
River Below, by Billy Talent
Standard Tuning
This is the download version, not the CD version but i dont
think that it's much different.


Lead Intro:
E|---------------------------------|
B|---------------------------------|
G|-----4---7---4---8-7-5-----------| X2
D|-5-5---5---5---5-------8-7-5-----|
A|-----------------------------8-7-|
E|---------------------------------|

Rhythm Intro:
E|-----------------|
B|-----------------|
G|-----------------|
D|---------7-7-7-7-| X2
A|-55-5-5-55-5-5-5-|
E|-33-3-3-3--------|

Verse:
E|-----------------|-----------------|-----------------|-----------------|
B|-----------------|-----------------|-----------------|-----------------|
G|-----------------|-----------------|-----------------|-----------------|
D|-----------777-5-|-----------777-5-|-----------555-7-|-8---8-8-7---7-7-| X2
A|---6-5-6---555-3-|---6-5-6---555-3-|---6-5-6---333-5-|-6---6-6-5---5-5-|
E|---3-3-3---------|---3-3-3---------|---3-3-3---------|-----------------|
[ Tab from: http://www.guitartabs.cc/tabs/t/talent_billy/river_below_tab_ver_2.html ]
Prechorus:
E|---------------------------------|----------------------------|
B|-----4-------8-------6---------7-|-----4-------8-------6------|
G|-----5-------8-------7-------7---|-----5-------8-------7---7~-|
D|---5---5---8---8-------8---7-----|---5---5---8---8-------8-7~-|
A|-3-------6---------8-----5-------|-3-------6---------8-----5~-|
E|-----------------6---------------|-----------------6----------|

Chorus:
E|----------------------------------|---------------------------------|
B|----------------------------------|---------------------------------|
G|----------------------------------|---------------------------------|
D|---------7777777788888888---------|-5-5-5-5---------7-7-7-7-8-8-8-8-|
A|-55555555555555556666666688888888-|-3-3-3-3-5-5-5-5-5-5-5-5-6-6-6-6-|
E|-33333333----------------66666666-|---------3-3-3-3-----------------|

For the second chorus, play the second part twice, then go to the bridge

Bridge Lead:
E|-----------------|
B|-----------------|
G|-----4---7---4---|
D|-5-5---5---5---5-| X4
A|-----------------|
E|-----------------|

Bridge Rhythm:
E|------------|
B|------------|
G|------------|
D|---------7~-| X4
A|-X5-5-5-55~-|
E|-X3-3-3-3---|

Then play the third chorus and just keep playing the second part of the chorus
until the end. 

At the end, play the intro once


---tabbed by br0dy st3wy---
Comments