Talasmen - Crenge Chords & Tabs

 

Crenge Chords & Tabs

Talasmen Chords & Tabs

Version: 1 Type: Tab 0 ratings
1 star 2 stars 3 stars 4 stars 5 stars
comments

Crenge Tab

From Your InteNeZ Tablature elf , helping you out with talasmens tight ass new song
"Crenge.." coming stright out of the INSOMNIA album.. although Talasmen's songs are not
always hard core alternative ..they still have sum awsome and sometime creepy sounding
music. I love watiching there music progress..I know there gonna be big!


InteNeZ_oNe@hotmail.com


" Crenge "
By Talasmen

Visit The Bands Official Web Site At www.Talasmen.com


|----------------------------------------------------------|
|----------------------------------------------------------|
|------0--------0------------0----0---------0--------------|
|----0-------0------0------0----0---0-----0----------------|
|--6------6-------6---\--3----3---3------------------------|
|---------------------------------------3-five times-------|

The the Intro countinues as is below ( i think )
[ Tab from: http://www.guitartabs.cc/tabs/t/talasmen/crenge_tab.html ]
|----------------------------------------------------------|
|----------------------------------------------------------|
|------0--------0--------0------------0----0---------0-----|
|-----0-------0-------0------0------0----0---0-----0-------|
|-----------6------6-------6---\--3----3---3---------------|
|-\-5------------------------------------------------------|

Then Go's the Chorus.....DOmm DOmm.." Just the sight of.."


|----------------------------------------------------------|
|----------------------------------------------------------|
|------0--------0------------0----0---------0--------------|
|----0-------0------0------0----0---0-----0----------------|
|--6------6-------6---\--3----3---3------------------------|
|---------------------------------------3-five times-------|

And that's all i could tab because then theres alot of effects
and drop " D " tunning and i bearly learnd how to use extreme
cording..... well peaze out all you kid's in USA Uk RocK's..

If you hear Any mistakes in my tab after hearing the song
then e-mail me at InteNeZ_oNe@hotmail.com

Visit The Bands Official Web Site At www.Talasmen.com
Comments