Taking Back Sunday - Your So Last Summer Chords & Tabs

 

Your So Last Summer Chords & Tabs

Taking Back Sunday Chords & Tabs

Version: 2 Type: Tab 0 ratings
1 star 2 stars 3 stars 4 stars 5 stars
comments

Your So Last Summer Tab

   
This Is Cpt.Winkky my name is dennis i live in East meadow 
and this is my second song on this site so it should be right.

Intro

standard tuning
P.M=Palm Mute
H=Hammer


INTRO x4
e|------------------------|
B|------------------------|
G|--666--777777777777-----|
D|--666--777777777777-----|
A|--444--555555555555--0--|
E|------------------------|
 P.M         P.M        P.M


VERSE (2x)
e|------------------------------
B|------------------------------
G|--666--777777777777-----------
D|--666--777777777777----- --
A|--444--555555555555--0--------
E|------------------------------
 P.M          P.M         P.M

FILL
e|--------------------------------------|
B|--10h12------------------10----17-----|
G|---------11--9--11----11----11-----9--|
D|--------------------------------------|
A|--------------------------------------|
E|--------------------------------------|
[ Tab from: http://www.guitartabs.cc/tabs/t/taking_back_sunday/your_so_last_summer_tab_ver_2.html ]
CHORUS x2
e|-------------------------------------------------|
B|-------------------------------------------------|
G|--7----------------------------------------------|
D|--7-- (x16) --7-----------9----------5-----------|
A|--5-----------7-- (x16) --9-- (x16)--5-- (x16) --|
E|--------------5-----------7----------3-----------|

VERSE
e|------------------------------
B|------------------------------
G|--666--777777777777-----------
D|--666--777777777777----- x2 --
A|--444--555555555555--0--------
E|------------------------------
  P.M         P.M           P.M

--------------------------------------|
--------------------------------------|
--------------------------------------|
--9999999999999999--5555555555555555--|
--9999999999999999--5555555555555555--|
--7777777777777777--3333333333333333--|
P.M              P.M        P.M


Chours

CHORUS x2
e|-------------------------------------------------|
B|-------------------------------------------------|
G|--7----------------------------------------------|
D|--7-- (x16) --7-----------9----------5-----------|
A|--5-----------7-- (x16) --9-- (x16)--5-- (x16) --|
E|--------------5-----------7----------3-----------|

Thats about it i think and if theres more all it does is repeat verse intro and fill

Comments