Taking Back Sunday - Where You Want To Be Chords & Tabs

 

Where You Want To Be Chords & Tabs

Taking Back Sunday Chords & Tabs

Version: 1 Type: Tab 0 ratings
1 star 2 stars 3 stars 4 stars 5 stars
comments

Where You Want To Be Tab

   
Taking Back Sunday
Where You Want To Be

Tabbed By: Grady Woodruff

Track listing:
1.  Set Phasers To Stun
2.  Bonus Mosh Pt. II
3.  A Decade Under The Influence
4.  This Photograph Is Proof (I Know You Know)
5.  The Union
6.  New American Classic
7.  I Am Fred Astaire
8.  One-Eighty By Summer
9.  Number Five With A Bullet
10. Little Devotional
11. ...Slowdance On The Inside 
_____________________________
key                          |
pm       - palm mute         |
ph       - pinch harmonics   |
~        - hold note out     |
x        - dead note         |
b        - bend              |
h        - hammer            |
p        - pull              |
*        - harmonics         |
A        - Arpeggiate*       |
/        - slide up          |
\        - slide down        |
(cont.)  - continued         |
X\\\\\\  - pick scrape       |
T        - Tremolo Picking** |
>        - To Be Continued   |
_____________________________|

* Arpeggiate - Play the notes of the chord by quickly rolling them from top
to bottom.

** Tremolo Picking - Pick the note as quickly as possible.





1. Set Phasers To Stun______________________________________________________


Tuning:
Guitars 1&2 Standard


INTRO
Guitar 2
E|-----------------------------------|
B|-5-5-5-5-5-5-5-5-4-4-4-4-4-4-4-4-4-|
G|-6-6-6-6-6-6-6-6-4-4-4-4-4-4-4-4-4-|
D|-----------------------------------|
A|-----------------------------------|2x
E|-----------------------------------|


VERSE
Guitar 1
E|-----------------------------------|
B|-----4~~~0~~~~~~----4~~~0~~~~~~~~~~|
G|-----------------------------------|
D|-----------------------------------|
A|-4~~~~~~~~~~~~~~2~~~~~~~~~~~~~~~~~~|2x
E|-----------------------------------|
 |
 |
Guitar 2
E|-----------------------------------|
B|-5-5-5-5-5-5-5-5-4-4-4-4-4-4-4-4-4-|
G|-6-6-6-6-6-6-6-6-4-4-4-4-4-4-4-4-4-|
D|-----------------------------------|
A|-----------------------------------|2x
E|-----------------------------------|


Guitar 1
E|-----------------------------------|
B|----4440-4440044----4440-4440044---|
G|-----------------------------------|
D|-----------------------------------|
A|-444-------------222---------------|3x
E|-----------------------------------|
  pm...... ....... ....... .......
 |
 |
Guitar 2
E|-----------------------------------|
B|-5-5-5-5-5-5-5-5-4-4-4-4-4-4-4-4-4-|
G|-6-6-6-6-6-6-6-6-4-4-4-4-4-4-4-4-4-|
D|-----------------------------------|
A|-----------------------------------|3x
E|-----------------------------------|


Guitar 1
E|-----------------------------------|
B|----4440-4440044----4440-4440044---|
G|-----------------------------------|
D|-----------------------------------|
A|-444-------------222---------------|1x
E|-----------------------------------|
  pm...... ....... ....... 
 |
 |
Guitar 2
E|-----------------------------------|
B|-5-5-5-5-5-5-5-5-4-4-4-4-4-4-4-4-4-|
G|-6-6-6-6-6-6-6-6-4-4-4-4-4-4-4-4-4-|
D|-----------------------------------|
A|-----------------------------------|1x
E|-----------------------------------|


     CHORUS
     Guitar 1
     E|-----0~~~~~~~~~0~~~~~~~~~0~~~~~~~~~0~~~~~|
     B|-------0~~~~~~~~~0~~~~~~~~~0~~~~~~~~~0~~~|
     G|-----------------------------------------|
     D|-----------------------------------------|
     A|-0~~~~~~~~~2~~~~~~~~~4~~~~~~~~~7~~~~~~~~~|2x
     E|-----------------------------------------|
      |
      |
     Guitar 2
     E|-----------------------------------------|
     B|----------------------------4~5~~~~~~~~~~|
     G|-----------------------------------------|
     D|-----------------------------------------|
     A|-----------------------------------------|2x
     E|-----------------------------------------|


VERSE
Guitar 1
E|-----------------------------------|
B|-----4~~~0~~~~~~----4~~~0~~~~~~~~~~|
G|-----------------------------------|
D|-----------------------------------|
A|-4~~~~~~~~~~~~~~2~~~~~~~~~~~~~~~~~~|2x
E|-----------------------------------|
 |
 |
Guitar 2
E|-----------------------------------|
B|-5-5-5-5-5-5-5-5-4-4-4-4-4-4-4-4-4-|
G|-6-6-6-6-6-6-6-6-4-4-4-4-4-4-4-4-4-|
D|-----------------------------------|
A|-----------------------------------|2x
E|-----------------------------------|


Guitar 1
E|-----------------------------------|
B|----4440-4440044----4440-4440044---|
G|-----------------------------------|
D|-----------------------------------|
A|-444-------------222---------------|3x
E|-----------------------------------|
  pm...... ....... ....... .......
 |
 |
Guitar 2
E|-----------------------------------|
B|-5-5-5-5-5-5-5-5-4-4-4-4-4-4-4-4-4-|
G|-6-6-6-6-6-6-6-6-4-4-4-4-4-4-4-4-4-|
D|-----------------------------------|
A|-----------------------------------|3x
E|-----------------------------------|


Guitar 1
E|-----------------------------------|
B|----4440-4440044----4440-4440044---|
G|-----------------------------------|
D|-----------------------------------|
A|-444-------------222---------------|1x
E|-----------------------------------|
  pm...... ....... ....... 
 |
 |
Guitar 2
E|-----------------------------------|
B|-5-5-5-5-5-5-5-5-4-4-4-4-4-4-4-4-4-|
G|-6-6-6-6-6-6-6-6-4-4-4-4-4-4-4-4-4-|
D|-----------------------------------|
A|-----------------------------------|1x
E|-----------------------------------|

     
     CHORUS
     Guitar 1
     E|-----0~~~~~~~~~0~~~~~~~~~0~~~~~~~~~0~~~~~|
     B|-------0~~~~~~~~~0~~~~~~~~~0~~~~~~~~~0~~~|
     G|-----------------------------------------|
     D|-----------------------------------------|
     A|-0~~~~~~~~~2~~~~~~~~~4~~~~~~~~~7~~~~~~~~~|3x
     E|-----------------------------------------|
      |
      |
     Guitar 2
     E|-----------------------------------------|
     B|----------------------------4~5~~~~~~~~~~|
     G|-----------------------------------------|
     D|-----------------------------------------|
     A|-----------------------------------------|3x
     E|-----------------------------------------|


     Guitar 1
     E|-----0~~~~~~~~~0~~~~~~~~~0~~~~~~~
     B|-------0~~~~~~~~~0~~~~~~~~~0~~~~~
     G|---------------------------------
     D|---------------------------------
     A|-0~~~~~~~~~2~~~~~~~~~4~~~~~~~~~~-fade
     E|---------------------------------
      |
      |
     Guitar 2
     E|--------------------------------5b--15b--|
     B|------------------4~5~~~~~~~-2b----------|
     G|-----------------------------------------|
     D|-----------------------------------------|
     A|-----------------------------------------|1x
     E|-----------------------------------------|
                                            ph

BRIDGE
Guitar 1
E|-----7-----7-------------------|
B|-------------9b----9-----9-7---|
G|-6-9---6-9-----6-9---6-9-----9-|
D|-------------------------------|
A|-------------------------------|3x
E|-------------------------------|
 |
 |
Guitar 2
E|-------------------------------|
B|-----------------2-0-----2-0---|
G|---------------2-----2-4-----2-|
D|-------------------------------|
A|-------------------------------|3x
E|-------------------------------|


Guitar 1
E|-----7-----7-------------------|
B|-------------9b----9-----9-7---|
G|-6-9---6-9-----6-9---6-9-----9-|
D|-------------------------------|
A|-------------------------------|1x
E|-------------------------------|
 |
 |
Guitar 2
E|-------------------------------|
B|-------------------------------|
G|--------------2222222244444444-|
D|--------------2222222244444444-|
A|--------------0000000022222222-|1x
E|-------------------------------|


Guitar 1
E|-----7-----7-------------------|
B|-------------9b----9-----9-7---|
G|-6-9---6-9-----6-9---6-9-----9-|
D|-------------------------------|
A|-------------------------------|1x
E|-------------------------------|
 |
 |
Guitar 2
E|-------------------------------|
B|-------------------------------|
G|2222222244444442222222244444444|
D|2222222244444442222222244444444|
A|0000000022222220000000022222222|1x
E|-------------------------------|


Guitar 1
E|-----7-----7-------------------|
B|-------------9b----9-----9-7---|
G|-6-9---6-9-----6-9---6-9-----9-|
D|-------------------------------|
A|-------------------------------|1x
E|-------------------------------|
 |
 |
Guitar 2
E|-------------------------------|
B|-------------------------------|
G|66666666-------2222222244444444|
D|6666666699999992222222244444444|
A|4444444466666660000000022222222|1x
E|-------------------------------|


Guitar 1
E|-----7-----7-------------------|
B|-------------9b----9-----9-7---|
G|-6-9---6-9-----6-9---6-9-----9-|
D|-------------------------------|
A|-------------------------------|1x
E|-------------------------------|
 |
 |
Guitar 2
E|-------------------------------|
B|-------------------------------|
G|2222222244444442222222244444444|
D|2222222244444442222222244444444|
A|0000000022222220000000022222222|1x
E|-------------------------------|


Guitar 1
E|-----7-----7----|
B|-------------9b-|
G|-6-9---6-9------|
D|----------------|
A|----------------|1x
E|----------------|
 |
 |
Guitar 2
E|----------------|
B|----------------|
G|66666666--------|
D|666666669999999-|
A|444444446666666-|1x
E|----------------|


OUTTRO
Guitar 1
E|-----7-----7-------------------|
B|-------------9b----------------|
G|-6-9---6-9-----6-9-8-----------|
D|---------------------9-7-6-4-2-|
A|-------------------------------|2x
E|-------------------------------|
 |
 |
Guitar 2
E|----------------------------------|
B|----------------------------------|
G|-66x66x66x66x6x6x66x66x66x66x6x6x-|
D|-66x66x66x66x6x6x66x66x66x66x6x6x-|
A|-44x44x44x44x4x4x44x44x44x44x4x4x-|2x
E|-00x00x00x00x0x0x00x00x00x00x0x0x-|


Guitar 1
E|-----7-----7-------------------|
B|-------------9b----------------|
G|-6-9---6-9---------------------|
D|-------------------------------|
A|-------------------------------|1x
E|-------------------------------|
 |
 |
Guitar 2
E|-------------------------------|
B|-------------------------------|
G|-----------------6-6-6-6-6-6-6\|
D|-----------------6-6-6-6-6-6-6\|
A|-----------------4-4-4-4-4-4-4\|1x
E|-------------------------------|





2. Bonus Mosh Pt. II________________________________________________________


Tuning:
Guitars 1, 2&3 Standard


INTRO
Guitar 2
E|----------------------------------------------------|
B|----------------------------------------------------|
G|----------------------------------------------------|
D|--------------------------------------------x-x-x---|
A|-5-5-5-5-5-0--------5-5-0---2-2-5-5-0-------x-x-x---|2x
E|-3-3-3--------5-5-5--------------------5-x--------5-|
  pm . . . . .  . . . . . .  . . . . . . .          .


VERSE 1
Guitar 1          *
E|--------------5-------------------------------------|
B|-7p3-2/3\2/3---p3-2/3\2/3------5---5------0---0-----|
G|---------------------------4h7---7---7--4---4---4/7-|
D|----------------------------------------------------|
A|----------------------------------------------------|3x
E|----------------------------------------------------|
  * to pull off of the 3 bar both strings on the 5th 
 |  fret and after you play the five on the high e string
 |  pull the b string onto the 3rd fret
Guitar 2
E|----------------------------------------------------|
B|----------------------------------------------------|
G|----------------------------------------------------|
D|--------------------------------------------x-x-x---|
A|-5-5-5-5-5-0--------5-5-0---2-2-5-5-0-------x-x-x---|3x
E|-3-3-3--------5-5-5--------------------5-x--------5-|
  pm . . . . .  . . . . . .  . . . . . . .          .


Guitar 1         *
E|-------------5-----------------------------------|
B|-7p3-2/3\2/3--p3-2/3\2/3-----5---5---7b8b7b8b7b--|
G|-------------------------4h7---7---7-------------|
D|-------------------------------------------------|
A|-------------------------------------------------|1x
E|-------------------------------------------------|
  * to pull off of the 3 bar both strings on the 5th 
 |  fret and after you play the five on the high e string
 |  pull the b string onto the 3rd fret
Guitar 2
E|-------------------------------------------------|
B|-------------------------------------------------|
G|-------------------------------------------------|
D|-----------------------------------------x-x-x---|
A|-5-5-5-5-5-0-------5-5-0-2-2-2-5-5-0-----x-x-x---|1x
E|-3-3-3-------5-5-5-------------------5-x-------5-|
  pm . . . . . . . . . . . . . . . . . .         .


     CHORUS
     Guitar 1
     E|-------------------------------------------------|
     B|-------------------------------------------------|
     G|-------7-7-7-------7-7-7-------7-7-7-9-9-9-7-7-7-|
     D|-------------------------------------------------|
     A|-------------------------------------------------|1x
     E|-------------------------------------------------|
      |
      |
     Guitar 2
     E|-------------------------------------------------|
     B|-------------------------------------------------|
     G|-------------------------------------------------|
     D|-------------------------------------------------|
     A|-5-5-5-5-5-5-7-7-7-7-7-7-9-9-9-9-9-9-9-9-9-9-9-9-|1x
     E|-3-3-3-3-3-3-5-5-5-5-5-5-7-7-7-7-7-7-7-7-7-7-7-7-|


     Guitar 1
     E|-------------------------------------------------|
     B|-------------------------------------8-8-8-7-7-7-|
     G|-------7-7-7-------7-7-7-------7-7-7-------------|
     D|-------------------------------------------------|
     A|-------------------------------------------------|1x
     E|-------------------------------------------------|
      |
      |
     Guitar 2
     E|-------------------------------------------------|
     B|-------------------------------------------------|
     G|-------------------------------------------------|
     D|-------------------------------------------------|
     A|-5-5-5-5-5-5-7-7-7-7-7-7-9-9-9-9-9-9-9-9-9-9-9-9-|1x
     E|-3-3-3-3-3-3-5-5-5-5-5-5-7-7-7-7-7-7-7-7-7-7-7-7-|


     Guitar 1
     E|-------------------------------------------------|
     B|-------7-7-7-------7-7-7-------7-7-7-8-8-8-7-7-7-|
     G|-------7-7-7-------7-7-7-------7-7-7-7-7-7-7-7-7-|
     D|-------------------------------------------------|
     A|-------------------------------------------------|3x
     E|-------------------------------------------------|
      |
      |
     Guitar 2
     E|-------------------------------------------------|
     B|-------------------------------------------------|
     G|-------------------------------------------------|
     D|-------------------------------------------------|
     A|-5-5-5-5-5-5-7-7-7-7-7-7-9-9-9-9-9-9-9-9-9-9-9-9-|3x
     E|-3-3-3-3-3-3-5-5-5-5-5-5-7-7-7-7-7-7-7-7-7-7-7-7-|


VERSE 2
Guitar 1
E|-------------------------------------------------|
B|-------------------------------------2h3p2h3p2-2-|
G|----------------------------------------------2-2|
D|-------------------------------------------------|
A|-------------------------------------------------|1x
E|-------------------------------------------------|
 |
 |
Guitar 2
E|-------------------------------------------------|
B|-------------------------------------------------|
G|-------------------------------------------------|
D|-----------------------------------------x-x-x---|
A|-5-5-5-5-5-0-------5-5-0-2-2-2-5-5-0-----x-x-x---|1x
E|-3-3-3-------5-5-5-------------------5-x-------5-|
  pm . . . . . . . . . . . . . . . . . .         .


Guitar 1
E|-------------------------------------------------|
B|-------------------------------------2h3p2h3p2-2-|
G|-2/4~~~~~~~~~4\-------------------------------2-2|
D|-------------------------------------------------|
A|-------------------------------------------------|1x
E|-------------------------------------------------|
 |
 |
Guitar 2
E|-------------------------------------------------|
B|-------------------------------------------------|
G|-------------------------------------------------|
D|-----------------------------------------x-x-x---|
A|-5-5-5-5-5-0-------5-5-0-2-2-2-5-5-0-----x-x-x---|1x
E|-3-3-3-------5-5-5-------------------5-x-------5-|
  pm . . . . . . . . . . . . . . . . . .         .


Guitar 1
E|-------------------5-----------5-----------------|
B|-------------------------------------2h3p2h3p2---|
G|-2/4-----4-4-4/6-----6---6/7-----7------------h2-|
D|-------------------------------------------------|
A|-------------------------------------------------|1x
E|-------------------------------------------------|
 | 
 |
Guitar 2
E|-------------------------------------------------|
B|-------------------------------------------------|
G|-------------------------------------------------|
D|-----------------------------------------x-x-x---|
A|-5-5-5-5-5-0-------5-5-0-2-2-2-5-5-0-----x-x-x---|1x
E|-3-3-3-------5-5-5-------------------5-x-------5-|
  pm . . . . . . . . . . . . . . . . . .         .


Guitar 1
E|-------------------5-----------5-----2--h3--/10-9|
B|-------------------------------------------------|
G|-2/4-----4-4-4/6-----6---6/7-----7---------------|
D|-------------------------------------------------|
A|-------------------------------------------------|1x
E|-------------------------------------------------|
 |
 |
Guitar 2
E|-------------------------------------------------|
B|-------------------------------------------------|
G|-------------------------------------------------|
D|-----------------------------------------x-x-x---|
A|-5-5-5-5-5-0-------5-5-0-2-2-2-5-5-0-----x-x-x---|1x
E|-3-3-3-------5-5-5-------------------5-x-------5-|
  pm . . . . . . . . . . . . . . . . . .         .


     CHORUS
     Guitar 1
     E|-------------------------------------------------|
     B|-------------------------------------------------|
     G|-------7-7-7-------7-7-7-------7-7-7-9-9-9-7-7-7-|
     D|-------------------------------------------------|
     A|-------------------------------------------------|1x
     E|-------------------------------------------------|
      |
      |
     Guitar 2
     E|-------------------------------------------------|
     B|-------------------------------------------------|
     G|-------------------------------------------------|
     D|-------------------------------------------------|
     A|-5-5-5-5-5-5-7-7-7-7-7-7-9-9-9-9-9-9-9-9-9-9-9-9-|1x
     E|-3-3-3-3-3-3-5-5-5-5-5-5-7-7-7-7-7-7-7-7-7-7-7-7-|


     Guitar 1
     E|-------------------------------------------------|
     B|-------------------------------------8-8-8-7-7-7-|
     G|-------7-7-7-------7-7-7-------7-7-7-------------|
     D|-------------------------------------------------|
     A|-------------------------------------------------|1x
     E|-------------------------------------------------|
      |
      |
     Guitar 2
     E|-------------------------------------------------|
     B|-------------------------------------------------|
     G|-------------------------------------------------|
     D|-------------------------------------------------|
     A|-5-5-5-5-5-5-7-7-7-7-7-7-9-9-9-9-9-9-9-9-9-9-9-9-|1x
     E|-3-3-3-3-3-3-5-5-5-5-5-5-7-7-7-7-7-7-7-7-7-7-7-7-|


     Guitar 1
     E|-------------------------------------------------|
     B|-------7-7-7-------7-7-7-------7-7-7-8-8-8-7-7-7-|
     G|-------7-7-7-------7-7-7-------7-7-7-7-7-7-7-7-7-|
     D|-------------------------------------------------|
     A|-------------------------------------------------|2x
     E|-------------------------------------------------|
      |
      |
     Guitar 2
     E|-------------------------------------------------|
     B|-------------------------------------------------|
     G|-------------------------------------------------|
     D|-------------------------------------------------|
     A|-5-5-5-5-5-5-7-7-7-7-7-7-9-9-9-9-9-9-9-9-9-9-9-9-|2x
     E|-3-3-3-3-3-3-5-5-5-5-5-5-7-7-7-7-7-7-7-7-7-7-7-7-|


PRE-BRIDGE
Guitar 1
E|-------------------------------------------------|
B|-------------------------------------------------|
G|-------7-7-7-------7-7-7-------7-7-7-------7-7b8-|
D|-------------------------------------------------|
A|-------------------------------------------------|1x
E|-------------------------------------------------|
 |
 |
Guitar 2
E|-------------------------------------------------|
B|-------------------------------------------------|
G|-------------------------------------------------|
D|-------------------------------------------------|
A|-9-9-9-------9-9-9-------9-9-9-------9-9-9-------|1x
E|-7-7-7-------7-7-7-------7-7-7-------7-7-7-------|


Guitar 1
E|-------------------------------------------------|
B|-------7-7-7-------7-7-7-------7-7-7-------7-7-7-|
G|-------7-7-7-------7-7-7-------7-7-7-------7-7-7-|
D|-------------------------------------------------|
A|-------------------------------------------------|1x
E|-------------------------------------------------|
 |
 |
Guitar 2
E|-------------------------------------------------|
B|-------------------------------------------------|
G|-------------------------------------------------|
D|-------------------------------------------------|
A|-5-5-5-------5-5-5-------5-5-5-------5-5-5-------|1x
E|-3-3-3-------3-3-3-------3-3-3-------3-3-3-------|


Guitar 1
E|-------------------------------------------------|
B|-------------------------------------------------|
G|-------7-7-7-------7-7-7-------7-7-7-------7-7-7-|
D|-------------------------------------------------|
A|-------------------------------------------------|1x
E|-------------------------------------------------|
 |
 |
Guitar 2
E|-------------------------------------------------|
B|-------------------------------------------------|
G|-------------------------------------------------|
D|-------------------------------------------------|
A|-9-9-9-------9-9-9-------9-9-9-------9-9-9-------|1x
E|-7-7-7-------7-7-7-------7-7-7-------7-7-7-------|


Guitar 1
E|-------------------------------------------------|
B|-------7-7-7-------7-7-7-------7-7-7-------7-7-7-|
G|-------7-7-7-------7-7-7-------7-7-7-------7-7-7-|
D|-------------------------------------------------|
A|-------------------------------------------------|1x
E|-------------------------------------------------|
 |
 |
Guitar 2
E|-------------------------------------------------|
B|-------------------------------------------------|
G|-------------------------------------------------|
D|-------------------------------------------------|
A|-5-5-5-------5-5-5-------5-5-5-------5-5-5-------|1x
E|-3-3-3-------3-3-3-------3-3-3-------3-3-3-------|


BRIDGE
Guitar 1
E|-------------------------------------------------|
B|-------3-----------2-----------3---------3---2h3-|
G|-----4---4-------4---4-------4---4---------------|
D|-------------------------------------------0-----|
A|-2~~~~~~~~~~~0~~~~~~~~~~~------------------------|1x
E|-------------------------0~~~~~~~~~2-3~~~~~~~~~~~|
 |
 |
Guitar 2
E|-------------------------------------------------|
B|-------------------------------------------------|
G|-------------------------------------------------|
D|-------------------------------------------------|
A|-9\----------------------------------------------|1x
E|-7\----------------------------------------------|


Guitar 1
E|-------------------------------------------------|
B|-------3-----------2-----------3---------3---2h3-|
G|-----4---4-------4---4-------4---4---------------|
D|-------------------------------------------0-----|
A|-2~~~~~~~~~~~0~~~~~~~~~~~------------------------|4x
E|-------------------------0~~~~~~~~~2-3~~~~~~~~~~~|


Guitar 1
E|-------------------------------------------------|
B|-------3-----------2-----------3---------3---2h3-|
G|-----4---4-------4---4-------4---4---------------|
D|-------------------------------------------0-----|
A|-2~~~~~~~~~~~0~~~~~~~~~~~------------------------|4x
E|-------------------------0~~~~~~~~~2-3~~~~~~~~~~~|

(cont.)
E|-------------------------------------------------|
B|-------3-----------2-----------3-----------------|
G|-----4---4-------4---4-------4---4---------------|
D|-------------------------------------------------|
A|-2~~~~~~~~~~~0~~~~~~~~~~~------------------------|1x
E|-------------------------0~~~~~~~~~2-3~~~~~~~~~~~|


Guitar 2
E|-------------|
B|-------------|
G|-(noise)-----|
D|-(noise)-----|
A|-----------4-|1x
E|-----------2-|

OUTTRO
Guitar 1
E|-------------------------------------------------|
B|-------------------------------------------------|
G|-------------------------------------------------|
D|-------------------------------------------------|
A|-------------------------------------------------|1x
E|-------------------------------------------------|
 |
 |
Guitar 2
E|-------------------------------------------------|
B|-------------------------------------------------|
G|-------------------------------------------------|
D|-------------------------------------------------|
A|-5-5-5-5-5-5-5-5-5-5-5-5-9-9-9-9-9-9-9-9-9-9-9-9-|1x
E|-3-3-3-3-3-3-3-3-3-3-3-3-7-7-7-7-7-7-7-7-7-7-7-7-|


Guitar 1
E|-------------------------------------------------|
B|-7-7-7-7-7-7-7-7-7-7-7-7-------------------------|
G|-x-x-x-x-x-x-x-x-x-x-x-x-7-7-7-7-7-7-7-7-7-7-7-7-|
D|-4-4-4-4-4-4-4-4-4-4-4-4-x-x-x-x-x-x-x-x-x-x-x-x-|
A|-------------------------5-5-5-5-5-5-5-5-5-5-5-5-|1x
E|-------------------------------------------------|
 | 
 |
Guitar 2
E|-------------------------------------------------|
B|-------------------------------------------------|
G|-------------------------------------------------|
D|-------------------------------------------------|
A|-9-9-9-9-9-9-9-9-9-9-9-9-5-5-5-5-5-5-5-5-5-5-5-5-|1x
E|-0-0-0-0-0-0-0-0-0-0-0-0-3-3-3-3-3-3-3-3-3-3-3-3-|


Guitar 1
E|-------------------------------------------------|
B|-------------------------------------------------|
G|-------------------------------------------------|
D|-------------------------------------------------|
A|-------------------------------------------------|1x
E|-------------------------------------------------|
 |
 |
Guitar 2
E|-------------------------------------------------|
B|-------------------------------------------------|
G|-------------------------------------------------|
D|-------------------------------------------------|
A|-5-5-5-5-5-5-5-5-5-5-5-5-9-9-9-9-9-9-9-9-9-9-9-9-|1x
E|-3-3-3-3-3-3-3-3-3-3-3-3-7-7-7-7-7-7-7-7-7-7-7-7-|


Guitar 1
E|-------------------------------------------------|
B|-7-7-7-7-7-7-7-7-7-7-7-7-------------------------|
G|-x-x-x-x-x-x-x-x-x-x-x-x-7-7-7-7-7-7-7-7-7-7-7-7-|
D|-4-4-4-4-4-4-4-4-4-4-4-4-x-x-x-x-x-x-x-x-x-x-x-x-|
A|-------------------------5-5-5-5-5-5-5-5-5-5-5-5-|1x
E|-------------------------------------------------|
 | 
 |
Guitar 2
E|-------------------------------------------------|
B|-------------------------------------------------|
G|-------------------------------------------------|
D|-------------------------------------------------|
A|-9-9-9-9-9-9-9-9-9-9-9-9-5-5-5-5-5-5-5-5-5-5-5-5-|1x
E|-0-0-0-0-0-0-0-0-0-0-0-0-3-3-3-3-3-3-3-3-3-3-3-3-|


Guitar 1
E|-------------------------------------------------|
B|-------------------------------------------------|
G|-------------------------------------------------|
D|-------------------------------------------------|
A|-------------------------------------------------|1x
E|-------------------------------------------------|
 |
 |
Guitar 2
E|-------------------------------------------------|
B|-------------------------------------------------|
G|-------------------------------------------------|
D|-------------------------------------------------|
A|-5-5-5-5-5-5-5-5-5-5-5-5-9-9-9-9-9-9-9-9-9-9-9-9-|1x
E|-3-3-3-3-3-3-3-3-3-3-3-3-7-7-7-7-7-7-7-7-7-7-7-7-|
 |
 |
Guitar 3
E|-------------5-----------------------------------|
B|-7p3-2/3\2/3---3-2/3\2/3-----5---5-----0---0-----|
G|-------------------------4h7---7---7-4---4---4/7-|
D|-------------------------------------------------|
A|-------------------------------------------------|1x
E|-------------------------------------------------|


Guitar 1
E|-------------------------------------------------|
B|-7-7-7-7-7-7-7-7-7-7-7-7-------------------------|
G|-x-x-x-x-x-x-x-x-x-x-x-x-7-7-7-7-7-7-7-7-7-7-7-7-|
D|-4-4-4-4-4-4-4-4-4-4-4-4-x-x-x-x-x-x-x-x-x-x-x-x-|
A|-------------------------5-5-5-5-5-5-5-5-5-5-5-5-|1x
E|-------------------------------------------------|
 | 
 |
Guitar 2
E|-------------------------------------------------|
B|-------------------------------------------------|
G|-------------------------------------------------|
D|-------------------------------------------------|
A|-9-9-9-9-9-9-9-9-9-9-9-9-5-5-5-5-5-5-5-5-5-5-5-5-|1x
E|-0-0-0-0-0-0-0-0-0-0-0-0-3-3-3-3-3-3-3-3-3-3-3-3-|
 |
 |
Guitar 3
E|-------------5-----------------------------------|
B|-7p3-2/3\2/3---3-2/3\2/3-----5---5-----0---0-----|
G|-------------------------4h7---7---7-4---4---4/7-|
D|-------------------------------------------------|
A|-------------------------------------------------|1x
E|-------------------------------------------------|


Guitar 1
E|-------------------------------------------------|
B|-------------------------7-7-7-------7-7-7-------|
G|-------------------------------7-7-7-------7-7-7-|
D|-------------------------------------------------|
A|-------------------------------------------------|1x
E|-------------------------------------------------|
 |
 |
Guitar 2
E|-------------------------------------------------|
B|-------------------------------------------------|
G|-------------------------------------------------|
D|---------x-x---------x-x---------x-x---------x-x-|
A|-5-5-5---x-x-7-7-7---x-x-9-9-9---x-x-9-9-9---x-x-|1x
E|-3-3-3---x-x-5-5-5---x-x-7-7-7---x-x-7-7-7---x-x-|


Guitar 1
E|-------------------------5-5-5-5-5-5-7\----------|
B|-7-7-7-------7-7-7-------------------------------|
G|-------7-7-7-------7-7-7-------------------------|
D|-------------------------------------------------|
A|-------------------------------------------------|1x
E|-------------------------------------------------|
 |
 |
Guitar 2
E|-------------------------------------------------|
B|-------------------------------------------------|
G|-------------------------------------------------|
D|-------------------------------------------------|
A|-5-5-5-------7-7-7-------9-9-9-9-9-9-9\----------|1x
E|-3-3-3-------5-5-5-------7-7-7-7-7-7-7\----------|


Guitar 1
E|-------21-21b-------
B|----------------------
G|-----------------------
D|--------------0------
A|----------------0------
E|-0---1---------------





3. A Decade Under The Influence_____________________________________________


Tuning:
Guitars 1&2 Drop D
Bass (tabbed for guitar) Standard
Keyboard (tabbed for guitar) Standard


INTRO
Guitar 1
E|-----0~~~~~~~0~~~~~~~0~~~~~~~0~~~|
B|-----5~~~~~~~5~~~~~~~5~~~~~~~5~~~|
G|-----6~~~~~~~6~~~~~~~6~~~~~~~6~~~|
D|-----7-------7-------7-------7---|
A|-0-0---0-0-0---0-0-0---0-0-0---0-|2x
E|---------------------------------|


PRE-VERSE
Guitar 1
E|-----0~~~~~~~0~~~~~~~0~~~~~~~0~~~|
B|-----5~~~~~~~5~~~~~~~5~~~~~~~5~~~|
G|-----6~~~~~~~6~~~~~~~6~~~~~~~6~6-|
D|---7-7-7---7-7-7---7-7-7---7-7-7-|
A|-5-5---5-5-5---5-5-5---5-5-5---5-|1x
E|---------------------------------|
 |
 |
Bass (tabbed for guitar)
E|---------------------------------|
B|---------------------------------|
G|---------------------------------|
D|---------------------------------|
A|-55555555555555555555555555555555|1x
E|---------------------------------|


VERSE
Guitar 1 (Delay & Flange Effects)
E|-----------------0(0-0-0-0-0-0-0)---------------------------------|
B|-5(5-5-5-5-5-5-5)5(5-5-5-5-5-5-5)2(2-2-2-2-2-2-2)5(5-5-5-5-5-5-5)-|
G|-6(6-6-6-6-6-6-6)6(6-6-6-6-6-6-6)2(2-2-2-2-2-2-2)2(2-2-2-2-2-2-2)-|
D|---------------------------------0(0-0-0-0-0-0-0)0(0-0-0-0-0-0-0)-|
A|------------------------------------------------------------------|1x
E|------------------------------------------------------------------|

(Cont.)
E|-----------------4(4-4-4-4-4-4-4)---------------------------------|
B|-5(5-5-5-5-5-5-5)5(5-5-5-5-5-5-5)2(2-2-2-2-2-2-2)5(5-5-5-5-5-5-5)-|
G|-6(6-6-6-6-6-6-6)6(6-6-6-6-6-6-6)2(2-2-2-2-2-2-2)2(2-2-2-2-2-2-2)-|
D|---------------------------------0(0-0-0-0-0-0-0)0(0-0-0-0-0-0-0)-|
A|------------------------------------------------------------------|1x
E|------------------------------------------------------------------|


     CHORUS
     Guitar 2
     E|---------------------------------|
     B|---------------------------------|
     G|-----------------7777777777777777|
     D|-777777777777777-7777777777777777|
     A|-777777777777777-5555555555555555|3x
     E|-7777777777777770----------------|


VERSE
Guitar 1 (Delay & Flange Effects)
E|-----------------0(0-0-0-0-0-0-0)---------------------------------|
B|-5(5-5-5-5-5-5-5)5(5-5-5-5-5-5-5)2(2-2-2-2-2-2-2)5(5-5-5-5-5-5-5)-|
G|-6(6-6-6-6-6-6-6)6(6-6-6-6-6-6-6)2(2-2-2-2-2-2-2)2(2-2-2-2-2-2-2)-|
D|---------------------------------0(0-0-0-0-0-0-0)0(0-0-0-0-0-0-0)-|
A|------------------------------------------------------------------|1x
E|------------------------------------------------------------------|


(Cont.)
E|-----------------4(4-4-4-4-4-4-4)---------------------------------|
B|-5(5-5-5-5-5-5-5)5(5-5-5-5-5-5-5)2(2-2-2-2-2-2-2)5(5-5-5-5-5-5-5)-|
G|-6(6-6-6-6-6-6-6)6(6-6-6-6-6-6-6)2(2-2-2-2-2-2-2)2(2-2-2-2-2-2-2)-|
D|---------------------------------0(0-0-0-0-0-0-0)0(0-0-0-0-0-0-0)-|
A|------------------------------------------------------------------|1x
E|------------------------------------------------------------------|


     CHORUS
     Guitar 2
     E|---------------------------------|
     B|---------------------------------|
     G|-----------------7777777777777777|
     D|-777777777777777-7777777777777777|
     A|-777777777777777-5555555555555555|2x
     E|-7777777777777770----------------|


     Guitar 1
     E|---------------------------------|
     B|---------------------------------|
     G|---------------------------------|
     D|---------------------------------|
     A|---------------------------------|1x
     E|-16\-----------------------------|
      |
      |
     Guitar 2
     E|---------------------------------|
     B|---------------------------------|
     G|---------------------------------|
     D|-444-4-44-44-4444222-2-22-22-2222|
     A|-444-4-44-44-4444222-2-22-22-2222|1x
     E|-444-4-44-44-4444222-2-22-22-2222|
    

     Guitar 1
     E|---------------------------------|
     B|---------------------------------|
     G|-7---------------7-------77777777|
     D|-x---------------x-------xxxxxxxx|
     A|-5---------------5-------55555555|1x
     E|---------------------------------|
      |
      |
     Guitar 2
     E|---------------------------------|
     B|---------------------------------|
     G|---------------------------------|
     D|-0-------------------------------|
     A|-00000000000000000000000000000000|1x
     E|-00000000000000000000000000000000|
       pm...............................


PRE-BRIDGE
Guitar 1
E|-------------------------------------------------------|
B|-------------------------------------------------------|
G|-6/7-7\6-6-6---6---6--/7-7\6-6-6---6/9-9-999-7-77-7777-|
D|-x---x---x-x---x---x-----x---x-x---x---x-xxx-x-xx-xxxx-|
A|-4/5-5\4-4-4---4---4--/5-5\4-4-4---4/7-7-777-5-55-5555-|2x
E|-------------------------------------------------------|
 |
 |
Guitar 2
E|-------------------------------------------------------|
B|-------------------------------------------------------|
G|-------------------------------------------------------|
D|-4-4-4-4-4-4---4---4---4-4-4-4-4---4-0-0-000-0-00-0000-|
A|-4-4-4-4-4-4---4---4---4-4-4-4-4---4-0-0-000-0-00-0000-|2x
E|-4-4-4-4-4-4---4---4---4-4-4-4-4---4-0-0-000-0-00-0000-|


Guitar 1
E|-------------------------------------------------------|
B|-------------------------------------------------------|
G|-6/7-7\6-6-6---6---6--/7-7\6-6-6---6/9-9-999-7~~~~~~~~~|
D|-x---x---x-x---x---x-----x---x-x---x---x-xxx-x---------|
A|-4/5-5\4-4-4---4---4--/5-5\4-4-4---4/7-7-777-5~~~~~~~~~|1x
E|-------------------------------------------------------|
 |
 |
Guitar 2
E|-------------------------------------------------------|
B|-------------------------------------------------------|
G|-------------------------------------------------------|
D|-4-4-4-4-4-4---4---4---4-4-4-4-4---4-0-0-000-0~~~~~~~~~|
A|-4-4-4-4-4-4---4---4---4-4-4-4-4---4-0-0-000-0~~~~~~~~~|1x
E|-4-4-4-4-4-4---4---4---4-4-4-4-4---4-0-0-000-0~~~~~~~~~|


BRIDGE
Guitar 1
E|-----0~~~~~~~~~0~~~~~~-------------------|
B|-------0~~~~~~~~~0~~~~-------------------|
G|-----------------------------------------|
D|-----------------------------------------|
A|-----------------------------------------|2x
E|-----------------------------------------|
 |
 |
Guitar 2
E|-0~~~~~~~~~0~~~~~~~~~2~~~~~~~~~0~~~~~~~~~|
B|-0~~~~~~~~~0~~~~~~~~~3~~~~~~~~~2~~~~~~~~~|
G|-2~~~~~~~~~1~~~~~~~~~2~~~~~~~~~2~~~~~~~~~|
D|-2~~~~~~~~~2~~~~~~~~~0~~~~~~~~~0~~~~~~~~~|
A|-x---------2~~~~~~~~~0~~~~~~~~~0~~~~~~~~~|2x
E|-2~~~~~~~~~----------0~~~~~~~~~0~~~~~~~~~|
   A         A         A         A




Guitar 1
E|-----0~~~~~~~~~0~~~~~--------------------|
B|-------0~~~~~~~~~0~~~--------------------|
G|-----------------------------------------|
D|-----------------------------------------|
A|-----------------------------------------|1x
E|-----------------------------------------|
 |
 |
Guitar 2
E|-0~~~~~~~~~0~~~~~~~~~2~~~~~~~~~0~~~~~~~~~|
B|-0~~~~~~~~~0~~~~~~~~~3~~~~~~~~~2~~~~~~~~~|
G|-2~~~~~~~~~1~~~~~~~~~2~~~~~~~~~2~~~~~~~~~|
D|-2~~~~~~~~~2~~~~~~~~~0~~~~~~~~~0~~~~~~~~~|
A|-x---------2~~~~~~~~~0~~~~~~~~~0~~~~~~~~~|1x
E|-2~~~~~~~~~----------0~~~~~~~~~0~~~~~~~~~|
   A         A         A         A
 |
 |
Keyboard (tabbed for guitar)
E|17-16-----17-16--------------------------|
B|------17~~~~~~~~17~~~~~~~~~15-14~~~~~~~~~|
G|--------------------14~~~~~--------------|
D|-----------------------------------------|
A|-----------------------------------------|1x
E|-----------------------------------------|


Guitar 1
E|-----0~~~~~~~~~0~~~~~~-------------------|
B|-------0~~~~~~~~~0~~~~-------------------|
G|-----------------------------------------|
D|-----------------------------------------|
A|-----------------------------------------|1x
E|-----------------------------------------|
 |
 |
Guitar 2
E|-0~~~~~~~~~0~~~~~~~~~2~~~----------------|
B|-0~~~~~~~~~0~~~~~~~~~3~~~----------------|
G|-2~~~~~~~~~1~~~~~~~~~2~~~----------------|
D|-2~~~~~~~~~2~~~~~~~~~0~~~----------------|
A|-x---------2~~~~~~~~~0~~~0000000000000000|2x
E|-2~~~~~~~~~----------0~~~0000000000000000|
   A         A         A  pm...............  
 |
 |
Keyboard (tabbed for guitar)
E|17-16-----17-16--------------------------|
B|------17~~~~~~~~17~~~~~~~~~15-14~~~~~~~~~|
G|--------------------14~~~~~--------------|
D|-----------------------------------------|
A|-----------------------------------------|1x
E|-----------------------------------------|


OUTTRO
Guitar 2
E|-------------------------------------------|
B|-------------------------------------------|
G|-------------------------------------------|
D|-4-444-44-44-444-4444-2-222-22-22-222-2222-|
A|-4-444-44-44-444-4444-2-222-22-22-222-2222-|> 
E|-4-444-44-44-444-4444-2-222-22-22-222-2222-|
 |
 |
Keyboard (tabbed for guitar)
E|17-16-----17-16---------------------------|
B|------17~~~~~~~~17~~~~~~~~~15-14~~~~~~~~~-|
G|--------------------14~~~~~---------------|
D|------------------------------------------|
A|------------------------------------------|>
E|------------------------------------------|


(cont.)
E|-------------------------------------------|
B|-------------------------------------------|
G|-------------------------------------------|
D|-0-000-00-00-000-0000-0-000-00-00-000-0000-|
A|-0-000-00-00-000-0000-0-000-00-00-000-0000-|3x 
E|-0-000-00-00-000-0000-0-000-00-00-000-0000-|
 |
 |
(cont.)
E|17-16-----17-16---------------------------|
B|------17~~~~~~~~17~~~~~~~~~15-14~~~~~~~~~-|
G|--------------------14~~~~~---------------|
D|------------------------------------------|
A|------------------------------------------|3x
E|------------------------------------------|


Guitar 2
E|------------------------------------------------------------|
B|------------------------------------------------------------|
G|------------------------------------------------------------|
D|-4-444-44-44-444-4444-2-222-22-22-222-2222-0~~~~~~~~~~~~~~~~|
A|-4-444-44-44-444-4444-2-222-22-22-222-2222-0~~~~~~~~~~~~~~~~|1x
E|-4-444-44-44-444-4444-2-222-22-22-222-2222-0~~~~~~~~~~~~~~~~|
 |
 |
Keyboard (tabbed for guitar)
E|17-16-----17-16---------------------------------------------|
B|------17~~~~~~~~17~~~~~~~~~15-14~~~~~~~~~-------------------|
G|--------------------14~~~~~---------------------------------|
D|------------------------------------------------------------|
A|------------------------------------------------------------|1x
E|------------------------------------------------------------|





4. This Photograph Is Proof (I Know You Know)_______________________________


Tuning:
Guitars 1, 2&3 Standard


INTRO
Guitar 1 (Finger picking)
E|-------------------------------------------------|
B|-7-7-7-5-5-5-7-7-7-5-5-5-2-2-2-3-3-3-2-2-2-3-3-3-|
G|-------------------------------------------------|
D|-------------------------------------------------|
A|-5-5-5-5-5-5-5-5-5-5-5-5\2-2-2-2-2-2-2-2-2-2-2-2-|1x
E|-------------------------------------------------|


Guitar 1 (Finger picking)
E|-------------------------------------------------|
B|-7-7-7-5-5-5-7-7-7-5-5-5-2-2-2-3-3-3-2-2-2-3-3-3-|
G|-------------------------------------------------|
D|-------------------------------------------------|
A|-5-5-5-5-5-5-5-5-5-5-5-5\2-2-2-2-2-2-2-2-2-2-2-2-|1x
E|-------------------------------------------------|
 |
 |
Guitar 2
E|-------------------------------------------------|
B|-------------------------------------------------|
G|-------------------------------------------------|
D|-------7-7-7------7-7---------4-4-2-4-4---4--2-0-|
A|-5-5--------5-5-------5-2-2----------------------|1x
E|-------------------------------------------------|
  pm .   . . .. .   . . . . .   . . . . .   .  . .


VERSE
Guitar 1 (Finger picking)
E|-------------------------------------------------|
B|-7-7-7-5-5-5-7-7-7-5-5-5-2-2-2-3-3-3-2-2-2-3-3-3-|
G|-------------------------------------------------|
D|-------------------------------------------------|
A|-5-5-5-5-5-5-5-5-5-5-5-5\2-2-2-2-2-2-2-2-2-2-2-2-|2x
E|-------------------------------------------------|
 |
 |
Guitar 2
E|-------------------------------------------------|
B|-------------------------------------------------|
G|-------------------------------------------------|
D|-------7-7-7------7-7---------4-4-2-4-4---4--2-0-|
A|-5-5--------5-5-------5-2-2----------------------|2x
E|-------------------------------------------------|
  pm .   . . .. .   . . . . .   . . . . .   .  . .


PRE-CHORUS
Guitar 1
E|-------------------------------------------------|
B|---2---2---2---3---3---3---5---5---5---7---7---7-|
G|-------------------------------------------------|
D|-0---0---0---0---0---0---0---0---0---0---0---0---|
A|-------------------------------------------------|1x
E|-------------------------------------------------|


(cont.)
E|-------------------------------------------------|
B|---2---2---2---3---3---3---2---2---2---3---3---3-|
G|-------------------------------------------------|
D|-0---0---0---0---0---0---0---0---0---0---0---0---|
A|-------------------------------------------------|1x
E|-------------------------------------------------|


(cont.)
E|-------------------------------------------------|
B|---2---2---2---3---3---3---5---5---5---7---7---7-|
G|-------------------------------------------------|
D|-0---0---0---0---0---0---0---0---0---0---0---0---|
A|-------------------------------------------------|1x
E|-------------------------------------------------|


(cont.)
E|-------------------------------------------------|
B|-------------------------------------------------|
G|-------------------------------------------------|
D|-5-5-5-5-5-5-5-5-5-5-5-5-------------------------|
A|-5-5-5-5-5-5-5-5-5-5-5-5-------------------------|1x
E|-3-3-3-3-3-3-3-3-3-3-3-3-3-3-3-3-3-3-3-3-3-3-3-3-|
                          pm . . . . . . . . . . .


     CHORUS
     Guitar 1
     E|-5-5555-5-5555-5-5555-5-5555-----------------------------|
     B|-x-xxxx-x-xxxx-x-xxxx-x-xxxx-7-7777-7-7777-5-5555-5-5555-|
     G|-2-2222-2-2222-2-2222-2-2222-x-xxxx-x-xxxx-x-xxxx-x-xxxx-|
     D|-----------------------------4-4444-4-4444-2-2222-2-2222-| 
     A|---------------------------------------------------------|2x
     E|---------------------------------------------------------|
      |
      |
     Guitar 2
     E|---------------------------------------------------------|
     B|---------------------------------------------------------|
     G|-7-7777-7-7777-7-7777-7-7777-4-4444-4-4444-5-5555-5-5555-|
     D|-7-7777-7-7777-7-7777-7-7777-4-4444-4-4444-5-5555-5-5555-|
     A|-5-5555-5-5555-5-5555-5-5555-2-2222-2-2222-3-3333-3-3333-|2x
     E|---------------------------------------------------------|


     Guitar 1
     E|-----------|
     B|-3~~~~~~~~~|
     G|-x---------|
     D|-0~~~~~~~~~|
     A|-----------|1x
     E|-----------|
      |
      |
     Guitar 2
     E|-----------|
     B|-----------|
     G|-7~~~~~~~~~|
     D|-7~~~~~~~~~|
     A|-5~~~~~~~~~|1x
     E|-----------|


POST-CHORUS
Guitar 1 (Finger picking)
E|-------------------------|
B|-2-2-2-3-3-3-2-2-2-3-3-3-|
G|-------------------------|
D|-------------------------|
A|-2-2-2-2-2-2-2-2-2-2-2-2-|1x
E|-------------------------|
 |
 |
Guitar 2
E|-------------------------|
B|-------------------------|
G|-------------------------|
D|-------4-4-2-4-4---4-4-2-|
A|-2-2---------------------|2x
E|-------------------------|
  pm .   . . . . .   . . .


VERSE
Guitar 1 (Finger picking)
E|-------------------------------------------------|
B|-7-7-7-5-5-5-7-7-7-5-5-5-2-2-2-3-3-3-2-2-2-3-3-3-|
G|-------------------------------------------------|
D|-------------------------------------------------|
A|-5-5-5-5-5-5-5-5-5-5-5-5\2-2-2-2-2-2-2-2-2-2-2-2-|2x
E|-------------------------------------------------|
 |
 |
Guitar 2
E|-------------------------------------------------|
B|-------------------------------------------------|
G|-------------------------------------------------|
D|-------7-7-7------7-7---------4-4-2-4-4---4--2-0-|
A|-5-5--------5-5-------5-2-2----------------------|2x
E|-------------------------------------------------|
  pm .   . . .. .   . . . . .   . . . . .   .  . .


PRE-CHORUS
Guitar 1
E|-------------------------------------------------|
B|---2---2---2---3---3---3---5---5---5---7---7---7-|
G|-------------------------------------------------|
D|-0---0---0---0---0---0---0---0---0---0---0---0---|
A|-------------------------------------------------|1x
E|-------------------------------------------------|


(cont.)
E|-------------------------------------------------|
B|---2---2---2---3---3---3---2---2---2---3---3---3-|
G|-------------------------------------------------|
D|-0---0---0---0---0---0---0---0---0---0---0---0---|
A|-------------------------------------------------|1x
E|-------------------------------------------------|


(cont.)
E|-------------------------------------------------|
B|---2---2---2---3---3---3---5---5---5---7---7---7-|
G|-------------------------------------------------|
D|-0---0---0---0---0---0---0---0---0---0---0---0---|
A|-------------------------------------------------|1x
E|-------------------------------------------------|


(cont.)
E|-------------------------------------------------|
B|-------------------------------------------------|
G|-------------------------------------------------|
D|-5-5-5-5-5-5-5-5-5-5-5-5-------------------------|
A|-5-5-5-5-5-5-5-5-5-5-5-5-------------------------|1x
E|-3-3-3-3-3-3-3-3-3-3-3-3-3-3-3-3-3-3-3-3-3-3-3-3-|
                          pm . . . . . . . . . . .


     CHORUS
     Guitar 1
     E|-5-5555-5-5555-5-5555-5-5555-----------------------------|
     B|-x-xxxx-x-xxxx-x-xxxx-x-xxxx-7-7777-7-7777-5-5555-5-5555-|
     G|-2-2222-2-2222-2-2222-2-2222-x-xxxx-x-xxxx-x-xxxx-x-xxxx-|
     D|-----------------------------4-4444-4-4444-2-2222-2-2222-| 
     A|---------------------------------------------------------|2x
     E|---------------------------------------------------------|
      |
      |
     Guitar 2
     E|---------------------------------------------------------|
     B|---------------------------------------------------------|
     G|-7-7777-7-7777-7-7777-7-7777-4-4444-4-4444-5-5555-5-5555-|
     D|-7-7777-7-7777-7-7777-7-7777-4-4444-4-4444-5-5555-5-5555-|
     A|-5-5555-5-5555-5-5555-5-5555-2-2222-2-2222-3-3333-3-3333-|2x
     E|---------------------------------------------------------|


     Guitar 1
     E|-----------|
     B|-7~~~~~~~~~|
     G|-x---------|
     D|-4~~~~~~~~~|
     A|-----------|1x
     E|-----------|
      |
      |
     Guitar 2
     E|-----------|
     B|-----------|
     G|-4~~~~~~~~~|
     D|-4~~~~~~~~~|
     A|-2~~~~~~~~~|1x
     E|-----------|


BRIDGE
Guitar 1
E|-------------------------|
B|-888888777777555555333333|
G|-xxxxxxxxxxxxxxxxxxxxxxxx|
D|-555555444444222222000000|
A|-------------------------|2x
E|-------------------------|
 |
 |
Guitar 2
E|-------------------------|
B|-333333555555777777888888|
G|-xxxxxxxxxxxxxxxxxxxxxxxx|
D|-000000222222444444555555|
A|-------------------------|2x
E|-------------------------|


Guitar 1
E|-------------------------|
B|-888888777777555555333333|
G|-xxxxxxxxxxxxxxxxxxxxxxxx|
D|-555555444444222222000000|
A|-------------------------|5x
E|-------------------------|
 |
 |
Guitar 2
E|-------------------------|
B|-333333555555777777888888|
G|-xxxxxxxxxxxxxxxxxxxxxxxx|
D|-000000222222444444555555|
A|-------------------------|5x

E|-------------------------|
 |
 |
Guitar 3
E|-------------------------|
B|-------------------------|
G|-------------------------|
D|-----------------x-2-2-2-|
A|-----------------x-2-2-2-|5x
E|-----------------x-0-0-0-|


Guitar 1
E|-------------------------|
B|-888888777777555555333333|
G|-xxxxxxxxxxxxxxxxxxxxxxxx|
D|-555555444444222222000000|
A|-------------------------|1x
E|-------------------------|
 |
 |
Guitar 2
E|-------------------------|
B|-333333555555777777888888|
G|-xxxxxxxxxxxxxxxxxxxxxxxx|
D|-000000222222444444555555|
A|-------------------------|1x
E|-------------------------|
 |
 |
Guitar 3
E|-------------------------|
B|-------------------------|
G|-------------------------|
D|-------------------------|
A|-------------222222222222|1x
E|-------------000000000000|
              pm...........


     CHORUS
     Guitar 1
     E|-5-5555-5-5555-5-5555-5-5555-----------------------------|
     B|-x-xxxx-x-xxxx-x-xxxx-x-xxxx-7-7777-7-7777-5-5555-5-5555-|
     G|-2-2222-2-2222-2-2222-2-2222-x-xxxx-x-xxxx-x-xxxx-x-xxxx-|
     D|-----------------------------4-4444-4-4444-2-2222-2-2222-| 
     A|---------------------------------------------------------|4x
     E|---------------------------------------------------------|
      |
      |
     Guitar 2
     E|---------------------------------------------------------|
     B|---------------------------------------------------------|
     G|-7-7777-7-7777-7-7777-7-7777-4-4444-4-4444-5-5555-5-5555-|
     D|-7-7777-7-7777-7-7777-7-7777-4-4444-4-4444-5-5555-5-5555-|
     A|-5-5555-5-5555-5-5555-5-5555-2-2222-2-2222-3-3333-3-3333-|4x
     E|---------------------------------------------------------|
      |
      |
     Guitar 3
     E|---------------------------------------------------------|
     B|---------------------------------------------------------|
     G|---------------------------------------------------------|
     D|------7h9p7\5\4h5/7~~~~~~7h9p7\5\4h5/7~~~~~~7h9p7\5\4h5/7|
     A|---------------------------------------------------------|4x
     E|---------------------------------------------------------|


OUTTRO
Guitar 2
E|-----------|
B|-----------|
G|-7~~~~~~~~~|
D|-7~~~~~~~~~|
A|-5~~~~~~~~~|1x
E|-----------|





5. The Union________________________________________________________________


Tuning:
Guitars 1&2 Standard


INTRO
Guitar 1
E|------------|
B|------------|
G|------------|
D|------------|
A|------------|1x
E|-X\\\\\\\\\-|


VERSE
Guitar 1
E|-77777777777777777777777777777777|
B|-xxxxxxxxxxxxxxxxxxxxxxxxxxxxxxxx|
G|-44444444444444444444444444444444|
D|---------------------------------|
A|---------------------------------|2x
E|---------------------------------|
 |
 |
Guitar 2
E|---------------------------------|
B|---------------------------------|
G|-44-444-444-444-444-444-444-444-4|
D|-xx-xxx-xxx-xxx-xxx-xxx-xxx-xxx-x|
A|-22-222-222-222-222-222-222-222-2|2x
E|---------------------------------|


Guitar 2
E|---------------------------------|
B|---------------------------------|
G|---------------------------------|
D|---------------------------------|
A|-55555555555555555555555555555555|1x
E|-33333333222222223333333322222222|


Guitar 1
E|-77777777777777777777777777777777|
B|-xxxxxxxxxxxxxxxxxxxxxxxxxxxxxxxx|
G|-44444444444444444444444444444444|
D|---------------------------------|
A|---------------------------------|2x
E|---------------------------------|
 |
 |
Guitar 2
E|---------------------------------|
B|---------------------------------|
G|-44-444-444-444-444-444-444-444-4|
D|-xx-xxx-xxx-xxx-xxx-xxx-xxx-xxx-x|
A|-22-222-222-222-222-222-222-222-2|2x
E|---------------------------------|


Guitar 2
E|---------------------------------|
B|---------------------------------|
G|---------------------------------|
D|---------------------------------|
A|-55555555555555555555555555555555|>
E|-33333333222222223333333322222222|


(cont.)
E|---------------------------------|
B|---------------------------------|
G|---------------------------------|
D|---------------------------------|
A|777777777777777788888888888888888|1x
E|555555555555555566666666666666666|


PRE-CHORUS
Guitar 1
E|---------------------|
B|---------------------|
G|-7~~~~/9-9-911xx\4~~~|
D|-0~~~~~0-0-0-0xx-0~~~|
A|-5~~~~/7-7-7/9xx\2~~~|2x
E|---------------------|


     CHORUS
     Guitar 1
     E|---------------------------------|
     B|---------------------------------|
     G|-77777777999999997777777777777777|
     D|-xxxxxxxxxxxxxxxxxxxxxxxxxxxxxxxx|
     A|-55555555777777775555555555555555|2x
     E|---------------------------------|
      |
      |
     Guitar 2
     E|---------------------------------|
     B|---------------------------------|
     G|-4444444477777777----------------|
     D|-44444444777777775555555555555555|
     A|-22222222555555555555555555555555|2x
     E|-----------------3333333333333333|


POST-CHORUS
Guitar 1
E|---4-2444--4-2444--4-2444--4-2444|
B|-22-2----22-2----22-2----22-2----|
G|---------------------------------|
D|---------------------------------|
A|---------------------------------|1x
E|---------------------------------|
  * All numbers in this line are tens (7=17, 2=12, etc.)
 |
 |
Guitar 2
E|---------------------------------|
B|---------------------------------|
G|-44-444-444-444-444-444-444-444-4|
D|-xx-xxx-xxx-xxx-xxx-xxx-xxx-xxx-x|
A|-22-222-222-222-222-222-222-222-2|1x
E|---------------------------------|


Guitar 1
E|-4---7---4----7---9---7---9\-----|
B|---2---2--------5---5------------|
G|---------------------------------|
D|---------------------------------|
A|---------------------------------|1x
E|---------------------------------|
  * All numbers in this line are tens (7=17, 2=12, etc.)
 |
 |
Guitar 2
E|---------------------------------|
B|---------------------------------|
G|-44-444-444-444-444-444-444-444-4|
D|-xx-xxx-xxx-xxx-xxx-xxx-xxx-xxx-x|
A|-22-222-222-222-222-222-222-222-2|1x
E|---------------------------------|


VERSE
Guitar 1
E|---------------------------------|
B|---------------------------------|
G|---------------------------------|
D|---------------------------------|
A|---------------------------------|>
E|---------------------------------|


(cont.)
E|--------------------19-----------|
B|-------------------------15---13-|
G|---------------------------------|
D|---------------------------------|
A|---------------------------------|1x
E|---------------------------------|
                       T    T    T


Guitar 1
E|---------------------------------|
B|---------------------------------|
G|-77777777777777777777777777777777|
D|-55555555444455555555555544445555|
A|---------------------------------|>
E|---------------------------------|
 |
 |
Guitar 2
E|---------------------------------|
B|---------------------------------|
G|---------------------------------|
D|---------------------------------|
A|-55555555555555555555555555555555|>
E|-33333333222222223333333322222222|


(cont.)
E|----------------------------------|
B|-----------------66666666666666666|
G|-999999999999999933333333333333333|
D|-7777777777777777-----------------|
A|----------------------------------|1x
E|----------------------------------|
 |
 |
(cont.)
E|----------------------------------|
B|----------------------------------|
G|----------------------------------|
D|----------------------------------|
A|-777777777777777788888888888888888|1x
E|-555555555555555566666666666666666|


     CHORUS
     Guitar 1
     E|---------------------------------|
     B|---------------------------------|
     G|-77777777999999997777777777777777|
     D|-xxxxxxxxxxxxxxxxxxxxxxxxxxxxxxxx|
     A|-55555555777777775555555555555555|4x
     E|---------------------------------|
      |
      |
     Guitar 2
     E|---------------------------------|
     B|---------------------------------|
     G|-4444444477777777----------------|
     D|-44444444777777775555555555555555|
     A|-22222222555555555555555555555555|4x
     E|-----------------3333333333333333|
      |
      |
     Guitar 3
     E|------------------3---1----------|
     B|---5p4--7p5-7/9---------5--3--1--|
     G|-6----6----6----2---2--2--2--2---|
     D|---------------------------------|
     A|---------------------------------|4x
     E|---------------------------------|
       * All numbers in this line are tens (7=17, 2=12, etc.)


BRIDGE
Guitar 1
E|---------------------------------|
B|---------------------------------|
G|---------------------------------|
D|---------------------------------|
A|---------------------------------|1x
E|---------------------------------|
 |
 |
Guitar 2
E|---------------------------------|
B|---------------------------------|
G|-44-444-444-444-444-444-444-444-4|
D|-xx-xxx-xxx-xxx-xxx-xxx-xxx-xxx-x|
A|-22-222-222-222-222-222-222-222-2|1x
E|---------------------------------|


Guitar 1
E|-9-------7-------5-------4-------|
B|---------------------------------|
G|---------------------------------|
D|---------------------------------|
A|---------------------------------|1x
E|---------------------------------|
  * All numbers in this line are tens (7=17, 2=12, etc.)
 |
 |
Guitar 2
E|---------------------------------|
B|---------------------------------|
G|-44-444-444-444-444-444-444-444-4|
D|-xx-xxx-xxx-xxx-xxx-xxx-xxx-xxx-x|
A|-22-222-222-222-222-222-222-222-2|1x
E|---------------------------------|


PRE-CHORUS
Guitar 1
E|---------------------|
B|---------------------|
G|-7~~~~/9-9-911xx\4~~~|
D|-0~~~~~0-0-0-0xx-0~~~|
A|-5~~~~/7-7-7/9xx\2~~~|2x
E|---------------------|


     CHORUS
     Guitar 1
     E|---------------------------------|
     B|---------------------------------|
     G|-77777777999999997777777777777777|
     D|-xxxxxxxxxxxxxxxxxxxxxxxxxxxxxxxx|
     A|-55555555777777775555555555555555|2x
     E|---------------------------------|
      |
      |
     Guitar 2
     E|---------------------------------|
     B|---------------------------------|
     G|-4444444477777777----------------|
     D|-44444444777777775555555555555555|
     A|-22222222555555555555555555555555|2x
     E|-----------------3333333333333333|


     CHORUS
     Guitar 1
     E|---------------------------------|
     B|---------------------------------|
     G|-77777777999999997777777777777777|
     D|-xxxxxxxxxxxxxxxxxxxxxxxxxxxxxxxx|
     A|-55555555777777775555555555555555|2x
     E|---------------------------------|
      |
      |
     Guitar 2
     E|---------------------------------|
     B|---------------------------------|
     G|-4444444477777777----------------|
     D|-44444444777777775555555555555555|
     A|-22222222555555555555555555555555|2x
     E|-----------------3333333333333333|
      |
      |
     Guitar 3
     E|------------------3---1----------|
     B|---5p4--7p5-7/9---------5--3--1--|
     G|-6----6----6----2---2--2--2--2---|
     D|---------------------------------|
     A|---------------------------------|2x
     E|---------------------------------|
       * All numbers in this line are tens (7=17, 2=12, etc.)


OUTTRO
Guitar 1
E|-777777777777777777777777777777777777-7-7-7-7\-|
B|-xxxxxxxxxxxxxxxxxxxxxxxxxxxxxxxxxxxx-x-x-x-x--|
G|-444444444444444444444444444444444444-4-4-4-4\-|
D|-----------------------------------------------|
A|-----------------------------------------------|1x
E|-----------------------------------------------|
 |
 |
Guitar 2
E|-----------------------------------------------|
B|-----------------------------------------------|
G|-44-444-444-444-444-444-444-444-444-4-4-4-4-4\-|
D|-xx-xxx-xxx-xxx-xxx-xxx-xxx-xxx-xxx-x-x-x-x-x--|
A|-22-222-222-222-222-222-222-222-222-2-2-2-2-2\-|1x
E|-----------------------------------------------|





6. New American Classic_____________________________________________________


Tuning:
Guitar 1 Standard Tuning


INTRO
Guitar 1 (Finger picking)
E|---------------2~~~~~~--------|
B|-0~~~~~~~3----------3-5p0---3-|
G|-----------0------0-------5---|
D|-----0h4-----0-0~~~~~~--------|
A|----------------------3~~~~~~~|2x
E|-3~~~~~~~---------------------|


VERSE
Guitar 1 (Finger picking)
E|---------------2~~~~~~--------|
B|-0~~~~~~~3----------3-5p0---3-|
G|-----------0------0-------5---|
D|-----0h4-----0-0~~~~~~--------|
A|----------------------3~~~~~~~|4x
E|-3~~~~~~~---------------------|

[ Tab from: http://www.guitartabs.cc/tabs/t/taking_back_sunday/where_you_want_to_be_tab.html ]
     CHORUS
     Guitar 1
     E|-------------------------------2---2-2-2h3-3-3-2h3-3-3-3-3-3-|
     B|-3---3-3-3---3-3-3-5-5-5---5-5-3---3-3-3---3-3-3---3-3-3-3-3-|
     G|-0---0-0-0---0-0-0-0-0-0---0-0-0---0-0-0---0-0-0---0-0-0-0-0-|
     D|-2---2-2-2---2-2-2-4-4-4---4-4-0---0-0-0---0-0-0---0-0-0-0-0-|
     A|-3---3-3-3---3-3-3/5-5-5---5-5-x---x-x-x---x-x-x---x-x-x-x-x-|2x
     E|-------------------------------3---3-3-3---3-3-3---3-3-3-3-3-|

     
     Guitar 1
     E|-------------------------------3---3-3-3---3-3-0---0-0-0-0-0-|
     B|-3---3-3-3---3-3-3-5-5-5---5-5-0---0-0-0---0-0-1---1-3-3-3-3-|
     G|-0---0-0-0---0-0-0-0-0-0---0-0-0---0-0-0---0-0-0---0-2-2-2-2-|
     D|-2---2-2-2---2-2-2-4-4-4---4-4-2---2-2-0---0-0-2---2-0-0-0-0-|
     A|-3---3-3-3---3-3-3/5-5-5---5-5-2---2-2-2---2-2-3---3---------|1x
     E|-------------------------------0---0-0-----------------------|


INTRO
Guitar 1 (Finger picking)
E|---------------2~~~~~~--------|
B|-0~~~~~~~3----------3-5p0---3-|
G|-----------0------0-------5---|
D|-----0h4-----0-0~~~~~~--------|
A|----------------------3~~~~~~~|2x
E|-3~~~~~~~---------------------|


VERSE
Guitar 1 (Finger picking)
E|---------------2~~~~~~--------|
B|-0~~~~~~~3----------3-5p0---3-|
G|-----------0------0-------5---|
D|-----0h4-----0-0~~~~~~--------|
A|----------------------3~~~~~~~|4x
E|-3~~~~~~~---------------------|


     CHORUS
     Guitar 1
     E|-------------------------------2---2-2-2h3-3-3-2h3-3-3-3-3-3-|
     B|-3---3-3-3---3-3-3-5-5-5---5-5-3---3-3-3---3-3-3---3-3-3-3-3-|
     G|-0---0-0-0---0-0-0-0-0-0---0-0-0---0-0-0---0-0-0---0-0-0-0-0-|
     D|-2---2-2-2---2-2-2-4-4-4---4-4-0---0-0-0---0-0-0---0-0-0-0-0-|
     A|-3---3-3-3---3-3-3/5-5-5---5-5-x---x-x-x---x-x-x---x-x-x-x-x-|2x
     E|-------------------------------3---3-3-3---3-3-3---3-3-3-3-3-|

     
     Guitar 1
     E|-------------------------------3---3-3-3---3-3-0---0-0-0-0-0-|
     B|-3---3-3-3---3-3-3-5-5-5---5-5-0---0-0-0---0-0-1---1-3-3-3-3-|
     G|-0---0-0-0---0-0-0-0-0-0---0-0-0---0-0-0---0-0-0---0-2-2-2-2-|
     D|-2---2-2-2---2-2-2-4-4-4---4-4-2---2-2-0---0-0-2---2-0-0-0-0-|
     A|-3---3-3-3---3-3-3/5-5-5---5-5-2---2-2-2---2-2-3---3---------|1x
     E|-------------------------------0---0-0-----------------------|


BRIDGE
Guitar 1 (Finger picking)
E|---0-0-0-----------0------------------------------------------------|
B|-3-----x---3---3-3-x---7\3-3---3-3-0h3-3-0h3-0-------0h3-0--3---3-3-|
G|-0---0-0---0-0---0-0---0~~~0---0-0-0~~~0--------------------0---0-0-|
D|-0-----0---0---0-0-0-------0---0-0-0~~~0-0~~~~~------0~~~~~-0---0-0-|
A|-x-----x---x-----x-x-------x---x-x-----x---------0----------x---x-x-|>
E|-3-----3---3-----3-3-------3---3-3-----3-3~~~~~3-----3~~~~~-3---3-3-|


(cont.)
E|-0~~~~~----------------------|
B|---5h6p5p3-5p3---3-3---3-3-3-|
G|---0-------------0-0---0-0-0-|
D|-----------------0-0---0-0-0-|
A|-----------------x-x---x-x-x-|1x
E|-3~~~~~----------3-3---3-3-3-|


(cont.)
E|-------------|   |-3-3-3h5p3---3---3-3-3---2h3p2-----3/5-5/7-7---|
B|-7~~~~p3~~~~~|   |-0-0-0---0---0---3-3-3---3-3-3-3---0~~~0~~~0~~~|
G|-------------|   |-0-0-0---0---0---0-0-0---0-0-0-0---0~~~0~~~0~~~|
D|-------------|   |-----0---0---0---0-0-0---0---0-0---------------|
A|-------------|7x |-----x-------x---x-x-x---x-----x---------------|>
E|-------------|   |-----3-------3---3-3-3---3-----3---------------|


(cont.)
E|-7---7-7/8---8-8---8p7-----8p7---8p7---8p7---8p7---8p7---8p7---8p7-|
B|-----------------------7-------7-----7-----7-----7-----7-----7-----|
G|-------------------------------------------------------------------|
D|-------------------------------------------------------------------|
A|-------------------------------------------------------------------|>
E|-------------------------------------------------------------------|


(cont.)
E|----10----10----10----10----10----10----10----10-|
B|-7h8---7h8---7h8---7h8---7h8---7h8---7h8---7h8---|
G|-------------------------------------------------|
D|-------------------------------------------------|
A|-------------------------------------------------|1x
E|-------------------------------------------------|


     CHORUS
     Guitar 1
     E|-------------------------------2---2-2-2h3-3-3-2h3-3-3-3-3-3-|
     B|-3---3-3-3---3-3-3-5-5-5---5-5-3---3-3-3---3-3-3---3-3-3-3-3-|
     G|-0---0-0-0---0-0-0-0-0-0---0-0-0---0-0-0---0-0-0---0-0-0-0-0-|
     D|-2---2-2-2---2-2-2-4-4-4---4-4-0---0-0-0---0-0-0---0-0-0-0-0-|
     A|-3---3-3-3---3-3-3/5-5-5---5-5-x---x-x-x---x-x-x---x-x-x-x-x-|2x
     E|-------------------------------3---3-3-3---3-3-3---3-3-3-3-3-|

     
     Guitar 1
     E|-------------------------------3---3-3-3---3-3-0---0-0-0-0-0-|
     B|-3---3-3-3---3-3-3-5-5-5---5-5-0---0-0-0---0-0-1---1-3-3-3-3-|
     G|-0---0-0-0---0-0-0-0-0-0---0-0-0---0-0-0---0-0-0---0-2-2-2-2-|
     D|-2---2-2-2---2-2-2-4-4-4---4-4-2---2-2-0---0-0-2---2-0-0-0-0-|
     A|-3---3-3-3---3-3-3/5-5-5---5-5-2---2-2-2---2-2-3---3---------|1x
     E|-------------------------------0---0-0-----------------------|


OUTTRO
Guitar 1 (Finger picking)
E|---------------2~~~~~~----------------------2~~~~~~--------------3~|
B|-0~~~~~~~3----------3-5p0---3-0~~~~~~~3----------3-5p0---3-------3~|
G|-----------0------0-------5-------------0------0-------5---5-4---0~|
D|-----0h4-----0-0~~~~~~------------0h4-----0-0~~~~~~--------------0~|
A|----------------------3~~~~~~~---------------------3~~~~~~~------2~|1x
E|-3~~~~~~~---------------------3~~~~~~~---------------------------3~|
                                                                   A




7. I Am Fred Astaire________________________________________________________


Tuning:
Guitars 1&2 Standard


INTRO
Guitar 1
E|----------------------|
B|----------------------|
G|-7~~~~~~~~~~~~7~~~~~7-|
D|-7~~~~~~~~~~~~--------|
A|-5~~~~~~~~~~~~--------|1x
E|----------------------|
                *    ph
 |
 |
Guitar 2
E|----------------------|
B|----------------------|
G|--------7~~~~~~~~~~~~-|
D|--------7~~~~~~~~~~~~-|
A|--------5~~~~~~~~~~~~-|1x
E|----------------------|


Guitar 1
E|---------------------------------|
B|---------------------------------|
G|-77777777777777777777777777777777|
D|-xxxxxxxxxxxxxxxxxxxxxxxxxxxxxxxx|
A|-55555555555555555555555555555555|1x
E|---------------------------------|
 |
 |
Guitar 2
E|---------------------------------|
B|---------------------------------|
G|-77777777777777777777777777777777|
D|-77777777777777777777777777777777|
A|-55555555555555555555555555555555|1x
E|---------------------------------|


VERSE
Guitar 1
E|-------------------------------------------------5555555555555555|
B|---------------------------------7777777777777777xxxxxxxxxxxxxxxx|
G|-77777777777777777777777777777777xxxxxxxxxxxxxxxx2222222222222222|
D|-xxxxxxxxxxxxxxxxxxxxxxxxxxxxxxxx4444444444444444----------------|
A|-55555555555555555555555555555555--------------------------------|1x
E|-----------------------------------------------------------------|
 |
 |
Guitar 2
E|-----------------------------------------------------------------|
B|-----------------------------------------------------------------|
G|-7~~~~~~~--------------------------------------------------------|
D|-7~~~~~~~--------------------------------------------------------|
A|-5~~~~~~~--------------------------------------------------------|1x
E|-----------------------------------------------------------------|


Guitar 1
E|-------------------------------------------------5555555555555555|
B|---------------------------------7777777777777777xxxxxxxxxxxxxxxx|
G|-77777777777777777777777777777777xxxxxxxxxxxxxxxx2222222222222222|
D|-xxxxxxxxxxxxxxxxxxxxxxxxxxxxxxxx4444444444444444----------------|
A|-55555555555555555555555555555555--------------------------------|1x
E|-----------------------------------------------------------------|
 |
 |
Guitar 2
E|-----------------------------------------------------------------|
B|-----------------------------------------------------------------|
G|-----------------------------------------------------------------|
D|---------------------------------------------------------7x7-7-7-|
A|---------------------------------------------------------7x7-7-7-|1x
E|---------------------------------------------------------5x5-5-5-|


PRE-CHORUS
Guitar
E|------------------------5-55-5-5-|
B|-----------------7-7-7-7x-xx-x-x-|
G|-7-7-7-77-77-7-7-x-x-x-x2-22-2-2-|
D|-x-x-x-xx-xx-x-x-4-4-4-4---------|
A|-5-5-5-55-55-5-5-----------------|1x
E|---------------------------------|
 |
 |
Guitar 2
E|---------------------------------|
B|---------------------------------|
G|-77777777777777777777777777777777|
D|-77777777777777777777777777777777|
A|-55555555555555555555555555555555|1x
E|---------------------------------|


VERSE
Guitar 1
E|-------------------------------------------------5555555555555555|
B|---------------------------------7777777777777777xxxxxxxxxxxxxxxx|
G|-77777777777777777777777777777777xxxxxxxxxxxxxxxx2222222222222222|
D|-xxxxxxxxxxxxxxxxxxxxxxxxxxxxxxxx4444444444444444----------------|
A|-55555555555555555555555555555555--------------------------------|1x
E|-----------------------------------------------------------------|
 |
 |
Guitar 2
E|-----------------------------------------------------------------|
B|-----------------------------------------------------------------|
G|-7~~~~~~~--------------------------------------------------------|
D|-7~~~~~~~--------------------------------------------------------|
A|-5~~~~~~~--------------------------------------------------------|1x
E|-----------------------------------------------------------------|


Guitar 1
E|-------------------------------------------------5555555555555555|
B|---------------------------------7777777777777777xxxxxxxxxxxxxxxx|
G|-77777777777777777777777777777777xxxxxxxxxxxxxxxx2222222222222222|
D|-xxxxxxxxxxxxxxxxxxxxxxxxxxxxxxxx4444444444444444----------------|
A|-55555555555555555555555555555555--------------------------------|1x
E|-----------------------------------------------------------------|
 |
 |
Guitar 2
E|-----------------------------------------------------------------|
B|-----------------------------------------------------------------|
G|-----------------------------------------------------------------|
D|---------------------------------------------------------7x7-7-7-|
A|---------------------------------------------------------7x7-7-7-|1x
E|---------------------------------------------------------5x5-5-5-|


     CHORUS
     Guitar 1
     E|-----------------------------------------------------------------|
     B|-----------------------------------------------------------------|
     G|-7~~~~~~~7~~~~~~~----------------5~~~~~~~5~~~~~~~----------------|
     D|-7~~~~~~~7~~~~~~~7~~~~~~~7~~~~~~~5~~~~~~~5~~~~~~~5~~~~~~~5~~~~~~~|
     A|-5~~~~~~~5~~~~~~~7~~~~~~~7~~~~~~~3~~~~~~~3~~~~~~~5~~~~~~~5~~~~~~~|2x
     E|-----------------5~~~~~~~5~~~~~~~----------------3~~~~~~~3~~~~~~~|
      |
      |
     Guitar 2
     E|-----------------------------------------------------------------|
     B|-----------------------------------------------------------------|
     G|-7777777777777777----------------5555555555555555----------------|
     D|-7777777777777777777777777777777755555555555555555555555555555555|
     A|-5555555555555555777777777777777733333333333333335555555555555555|2x
     E|-----------------5555555555555555----------------3333333333333333|


POST-CHORUS
Guitar 1
E|-----------------|
B|-8887778887778877|
G|-xxxxxxxxxxxxxxxx|
D|-5554445554445544|
A|-----------------|1x
E|-----------------|
 |
 |
Guitar 2
E|-----------------|
B|-----------------|
G|-----------------|
D|-5555555555555555|
A|-5555555555555555|1x
E|-3333333333333333|


Guitar 1
E|---------------------------------|
B|-88877788877788778887778887778877|
G|-xxxxxxxxxxxxxxxxxxxxxxxxxxxxxxxx|
D|-55544455544455445554445554445544|
A|---------------------------------|1x
E|---------------------------------|
 |
 |
Guitar 2
E|---------------------------------|
B|---------------------------------|
G|-7~~~~~--------------------------|
D|-7~~~~~--------------------------|
A|-5~~~~~--------------------------|1x
E|---------------------------------|



Guitar 1
E|---------------------------------|
B|-88877788877788778887778887778877|
G|-xxxxxxxxxxxxxxxxxxxxxxxxxxxxxxxx|
D|-55544455544455445554445554445544|
A|---------------------------------|1x
E|---------------------------------|
 |
 |
Guitar 2
E|---------------------------------|
B|---------------------------------|
G|-7~~~~~--------------------------|
D|-7~~~~~--------------------------|
A|-5~~~~~--------------------------|1x
E|----------------------X\\\\\\\\\\|


VERSE
Guitar 1
E|-------------------------------------------------5555555555555555|
B|---------------------------------7777777777777777xxxxxxxxxxxxxxxx|
G|-77777777777777777777777777777777xxxxxxxxxxxxxxxx2222222222222222|
D|-xxxxxxxxxxxxxxxxxxxxxxxxxxxxxxxx4444444444444444----------------|
A|-55555555555555555555555555555555--------------------------------|2x
E|-----------------------------------------------------------------|
 |
 |
Guitar 2
E|-----------------------------------------------------------------|
B|-----------------------------------------------------------------|
G|-7~~~~~~~--------------------------------------------------------|
D|-7~~~~~~~--------------------------------------------------------|
A|-5~~~~~~~--------------------------------------------------------|2x
E|-----------------------------------------------------------------|


     CHORUS
     Guitar 1
     E|-----------------------------------------------------------------|
     B|-----------------------------------------------------------------|
     G|-7~~~~~~~7~~~~~~~----------------5~~~~~~~5~~~~~~~----------------|
     D|-7~~~~~~~7~~~~~~~7~~~~~~~7~~~~~~~5~~~~~~~5~~~~~~~5~~~~~~~5~~~~~~~|
     A|-5~~~~~~~5~~~~~~~7~~~~~~~7~~~~~~~3~~~~~~~3~~~~~~~5~~~~~~~5~~~~~~~|2x
     E|-----------------5~~~~~~~5~~~~~~~----------------3~~~~~~~3~~~~~~~|
      |
      |
     Guitar 2
     E|-----------------------------------------------------------------|
     B|-----------------------------------------------------------------|
     G|-7777777777777777----------------5555555555555555----------------|
     D|-7777777777777777777777777777777755555555555555555555555555555555|
     A|-5555555555555555777777777777777733333333333333335555555555555555|2x
     E|-----------------5555555555555555----------------3333333333333333|


BRIDGE
Guitar 1
E|-------5555555555------5555555555------5555555555------5555555555|
B|-777788xxxxxxxxxx777788xxxxxxxxxx777788xxxxxxxxxx777788xxxxxxxxxx|
G|-xxxxxx2222222222xxxxxx2222222222xxxxxx2222222222xxxxxx2222222222|
D|-444455----------444455----------444455----------444455----------|
A|-----------------------------------------------------------------|2x
E|-----------------------------------------------------------------|
 |
 |
Guitar 2
E|-----------------------------------------------------------------|
B|-----------------------------------------------------------------|
G|-7777777777777777----------------5555555555555555----------------|
D|-7777777777777777777777777777777755555555555555555555555555555555|
A|-5555555555555555777777777777777733333333333333335555555555555555|2x
E|-----------------5555555555555555----------------3333333333333333|


OUTTRO
Guitar 1
E|-----------------|
B|-8887778887778877|
G|-xxxxxxxxxxxxxxxx|
D|-5554445554445544|
A|-----------------|1x
E|-----------------|
 |
 |
Guitar 2
E|-----------------|
B|-----------------|
G|-----------------|
D|-5555555555555555|
A|-5555555555555555|1x
E|-3333333333333333|


Guitar 1 (Reverb Effects)
E|---------------------------------|
B|-8~~~~~--------------------------|
G|-x-------------------------------|
D|-5~~~~~--------------------------|
A|---------------------------------|1x
E|---------------------------------|
 |
 |
Guitar 2 (Reverb Effects)
E|---------------------------------|
B|---------------------------------|
G|---------------------------------|
D|-5~~~~~--------------------------|
A|-5~~~~~--------------------------|1x
E|-3~~~~~--------------------------|





8. One-Eighty by Summer_____________________________________________________


Tuning:
Guitars 1&2 Standard


INTRO
Guitar 1
E|---------------------------------|
B|-77777778-7777778-3333335~55~3333|
G|-00000000-0000000-0000000~00~0000|
D|-xxxxxxxx-xxxxxxx-xxxxxxx-xx-xxxx|
A|-77777777-5555555-3333333~33~3333|5x
E|---------------------------------|


VERSE
Guitar 1
E|-----3~~~----2~~~------------3---|
B|-----0~~~----0~~~----3~~~----3~~~|
G|-----0~~~----x-------0~~~----0~~~|
D|-----x---2-2-2~~~----x-------x---|
A|-3-3-3~~~--------2-2-2~~~3-3-3~~~|2x
E|---------------------------------|
  pm .     . .     . .     . . 


Guitar 2
E|-33333333333333332222222233333333|
B|-00000000000000000000000000000000|
G|-00000000xxxxxxxx0000000000000000|
D|-xxxxxxxx22222222xxxxxxxxxxxxxxxx|
A|-33333333--------2222222233333333|1x
E|---------------------------------|
  pm...............................


Guitar 2
E|-33333333333333332222222233333333|
B|-00000000000000000000000000000000|
G|-00000000xxxxxxxx0000000000000000|
D|-xxxxxxxx22222222xxxxxxxxxxxxxxxx|
A|-33333333--------2222222233333333|1x
E|---------------------------------|
  pm.......................


     CHORUS
     Guitar 1
     E|---------------------------------|
     B|-77777778-7777778-3333335~55~3333|
     G|-00000000-0000000-0000000~00~0000|
     D|-xxxxxxxx-xxxxxxx-xxxxxxx-xx-xxxx|
     A|-77777777-5555555-3333333~33~3333|4x
     E|---------------------------------|


VERSE
Guitar 1
E|-----3~~~----2~~~------------3---|
B|-----0~~~----0~~~----3~~~----3~~~|
G|-----0~~~----x-------0~~~----0~~~|
D|-----x---2-2-2~~~----x-------x---|
A|-3-3-3~~~--------2-2-2~~~3-3-3~~~|2x
E|---------------------------------|
  pm .     . .     . .     . . 


Guitar 2
E|-33333333333333332222222233333333|
B|-00000000000000000000000000000000|
G|-00000000xxxxxxxx0000000000000000|
D|-xxxxxxxx22222222xxxxxxxxxxxxxxxx|
A|-33333333--------2222222233333333|1x
E|---------------------------------|
  pm...............................


Guitar 1
E|--7--7--7--7--7--7--7--7--7--7--7------|
B|---------------------------------------|
G|-0-00-00--0-00-00--0-00-00--0-00-------|
D|---------------------------------------|
A|---------------------------------------|1x
E|---------------------------------------|
  pm .. ..  . .. ..  . .. ..  . ..
 |
 |
Guitar 2
E|-333333333333333322222222333333333~~~~~|
B|-000000000000000000000000000000000~~~~~|
G|-00000000xxxxxxxx00000000000000000~~~~~|
D|-xxxxxxxx22222222xxxxxxxxxxxxxxxxx-----|
A|-33333333--------22222222333333333~~~~~|1x
E|---------------------------------------|
  pm...............................


BRIDGE
Guitar 2
E|-----------------------------------------|
B|-------3~~~------3~~~------3~~~------3~~~|
G|----0~~~------0~~~------0~~~------0~~~---|
D|-----------------------------------------|
A|-3~~~~~----0~~~~~------------------------|1x
E|---------------------3~~~~~----3~~~~~----|


Guitar 1 (Delay & Reverb Effects)
E|-3(3-3-3-3-3-3-3-3-3-3-3-3-3-3-3-3-3-3-3)|
B|-x---------------------------------------|
G|-0(0-0-0-0-0-0-0-0-0-0-0-0-0-0-0-0-0-0-0)|
D|-----------------------------------------|
A|-----------------------------------------|2x
E|-----------------------------------------|
 |
 |
Guitar 2
E|-----------------------------------------|
B|-------3~~~------3~~~------3~~~------3~~~|
G|----0~~~------0~~~------0~~~------0~~~---|
D|-----------------------------------------|
A|-3~~~~~----0~~~~~------------------------|2x
E|---------------------3~~~~~----3~~~~~----|


OUTTRO
Guitar 1
E|--7--7--5-5-5h7-3-7--7--5-5-5h7-3-7--7--5-5-5h7-3-7--7--5-5-5h7-3|
B|-----------------------------------------------------------------|
G|-0--0--0---0-----0--0--0---0-----0--0--0---0-----0--0--0---0-----|
D|-----------------------------------------------------------------|
A|-----------------------------------------------------------------|2x
E|-----------------------------------------------------------------|
 |
 |
Guitar 2
E|-----------------------------------------------------------------|
B|-----------------------------------------------------------------|
G|-55555-55-55-5555------------------------------------------------|
D|-55555-55-55-555577777-77-77-777755555-55-55-555555555-55-55-5555|
A|-33333-33-33-333377777-77-77-777755555-55-55-555555555-55-55-5555|2x
E|-----------------55555-55-55-555533333-33-33-333333333-33-33-3333|


Guitar 1
E|--7--7--5-5-5h7-3-7--7--5-5-5h7-3-7--7--5-5-5h7-3-7--7--5-5-5h7-3|
B|-----------------------------------------------------------------|
G|-0--0--0---0-----0--0--0---0-----0--0--0---0-----0--0--0---0-----|
D|-----------------------------------------------------------------|
A|-----------------------------------------------------------------|2x
E|-----------------------------------------------------------------|
 |
 |
Guitar 2
E|-----------------------------------------------------------------|
B|-----------------------------------------------------------------|
G|-5555555555555555------------------------------------------------|
D|-5555555555555555777777777777777755555555555555555555555555555555|
A|-3333333333333333777777777777777755555555555555555555555555555555|2x
E|-----------------555555555555555533333333333333333333333333333333|


Guitar 1
E|--7--7--5-5-5h7-3-7--7--5-5-5h7-3-7--7--5-5-5h7-3-7--7--5-5-5h7-3|
B|-----------------------------------------------------------------|
G|-0--0--0---0-----0--0--0---0-----0--0--0---0-----0--0--0---0-----|
D|-----------------------------------------------------------------|
A|-----------------------------------------------------------------|1x
E|-----------------------------------------------------------------|
 |
 |
Guitar 2
E|-----------------------------------------------------------------|
B|-----------------------------------------------------------------|
G|-----------------------------------------------------------------|
D|-5~~~~~----------------------------------------------------------|
A|-5~~~~~----------------------------------------------------------|1x
E|-3~~~~~----------------------------------------------------------|





9. Number Five With A Bullet________________________________________________


Tuning:
Guitars 1&2 Drop D
Keyboard (tabbed for guitar)


INTRO
Guitar 2
E|-----------------------------------------------------------------|
B|-----------------------------------------------------------------|
G|-----------------------------------------------------------------|
D|-----------------------------------------------------------------|
A|-7777777777777777777777777777777700000000000000000000000000000000|1x 
E|-7777777777777777666666666666666600000000000000000000000000000000|
  pm...............................................................


Guitar 2
E|-----------------------------------------------------------------|
B|-----------------------------------------------------------------|
G|-----------------------------------------------------------------|
D|-----------------------------------------------------------------|
A|-7777777777777777777777777777777700000000000000000000000000000000|1x
E|-7777777777777777666666666666666600000000000000000000000000000000|
  pm...............................................................
 |
 |
Keyboard (tabbed for guitar)
E|-10h12----12----10h12----12----10h12----------10h12----------/16\|
B|-------10----10--------9-----9-----------------------------------|
G|-----------------------------------------------------------------|
D|-------------------------------------12-14-12-------12-14-12-----|
A|-----------------------------------------------------------------|1x
E|-----------------------------------------------------------------|


VERSE
Guitar 2
E|-----------------------------------------------------------------|
B|-----------------------------------------------------------------|
G|-----------------------------------------------------------------|
D|---------------------------------------------------------22222222|
A|-9999999944444444000000007777777799999999444444440000000022222222|1x
E|-9999999944444444000000007777777799999999444444440000000022222222|
  pm.......................................................


     CHORUS
     Guitar 1
     E|-----------------------------------------------------------------|
     B|-----------------------------------------------------------------|
     G|-99999999999999999999999999999999999-7-6-77777777777-7-6-7777777-|
     D|-xxxxxxxxxxxxxxxxxxxxxxxxxxxxxxxxxxx-x-x-xxxxxxxxxxx-x-x-xxxxxxx-|
     A|-77777777777777777777777777777777777-5-4-55555555555-5-4-5555555-|1x
     E|-----------------------------------------------------------------|
      |
      |
     Guitar 2
     E|-----------------------------------------------------------------|
     B|-----------------------------------------------------------------|
     G|-----------------------------------------------------------------|
     D|-----------------------------------------------------------------|
     A|-7777777777777777777777777777777700000000000000000000000000000000|1x 
     E|-7777777777777777666666666666666600000000000000000000000000000000|
 

     Guitar 1
     E|-----------------------------------------------------------------|
     B|-----------------------------------------------------------------|
     G|-99999999999999999999999999999999999-7-6-77777777777-7-6-7777777-|
     D|-xxxxxxxxxxxxxxxxxxxxxxxxxxxxxxxxxxx-x-x-xxxxxxxxxxx-x-x-xxxxxxx-|
     A|-77777777777777777777777777777777777-5-4-55555555555-5-4-5555555-|1x
     E|-----------------------------------------------------------------|
      |
      |
     Guitar 2
     E|-----------------------------------------------------------------|
     B|-----------------------------------------------------------------|
     G|-----------------------------------------------------------------|
     D|-----------------------------------------------------------------|
     A|-7777777777777777777777777777777700000000000000000000000000000000|1x 
     E|-7777777777777777666666666666666600000000000000000000000000000000|
      |
      |
     Keyboard (tabbed for guitar)
     E|-10h12----12----10h12----12----10h12----------10h12-----------16\|
     B|-------10----10--------9-----9-----------------------------------|
     G|-----------------------------------------------------------------|
     D|-------------------------------------12-14-12-------12-14-12-----|
     A|-----------------------------------------------------------------|1x
     E|-----------------------------------------------------------------|


VERSE
Guitar 2
E|-----------------------------------------------------------------|
B|-----------------------------------------------------------------|
G|-----------------------------------------------------------------|
D|-----------------------------------------------------------------|
A|-9999999944444444000000007777777799999999444444440000000077777777|1x
E|-9999999944444444000000007777777799999999444444440000000077777777|
  pm...............................................................


Guitar 1
E|/5-5-5-5-5-5-5\4-5\4-5-5-5-5-5-5-5\4-5\4-5555777799991010101012--|
B|-x-x-x-x-x-x-x---x---x-x-x-x-x-x-x---x---xxxxxxxxxxxx x x x x x--|
G|/2-2-2-2-2-2-2\1-2\1-2-2-2-2-2-2-2\1-2\1-222244446666 7 7 7 7 9~~|
D|-----------------------------------------------------------------|
A|-----------------------------------------------------------------|1x
E|-----------------------------------------------------------------|
 |
 |
Guitar 2
E|-----------------------------------------------------------------|
B|-----------------------------------------------------------------|
G|-----------------------------------------------------------------|
D|---------------------------------------------------------22222222|
A|-9999999944444444000000007777777799999999444444440000000022222222|1x
E|-9999999944444444000000007777777799999999444444440000000022222222|
  pm.......................................................

 
     CHORUS
     Guitar 1
     E|-----------------------------------------------------------------|
     B|-----------------------------------------------------------------|
     G|-99999999999999999999999999999999999-7-6-77777777777-7-6-7777777-|
     D|-xxxxxxxxxxxxxxxxxxxxxxxxxxxxxxxxxxx-x-x-xxxxxxxxxxx-x-x-xxxxxxx-|
     A|-77777777777777777777777777777777777-5-4-55555555555-5-4-5555555-|1x
     E|-----------------------------------------------------------------|
      |
      |
     Guitar 2
     E|-----------------------------------------------------------------|
     B|-----------------------------------------------------------------|
     G|-----------------------------------------------------------------|
     D|-----------------------------------------------------------------|
     A|-7777777777777777777777777777777700000000000000000000000000000000|1x 
     E|-7777777777777777666666666666666600000000000000000000000000000000|
 

     Guitar 1
     E|-----------------------------------------------------------------|
     B|-----------------------------------------------------------------|
     G|-99999999999999999999999999999999999-7-6-77777777777-7-6-7777777-|
     D|-xxxxxxxxxxxxxxxxxxxxxxxxxxxxxxxxxxx-x-x-xxxxxxxxxxx-x-x-xxxxxxx-|
     A|-77777777777777777777777777777777777-5-4-55555555555-5-4-5555555-|1x
     E|-----------------------------------------------------------------|
      |
      |
     Guitar 2
     E|-----------------------------------------------------------------|
     B|-----------------------------------------------------------------|
     G|-----------------------------------------------------------------|
     D|-----------------------------------------------------------------|
     A|-7777777777777777777777777777777700000000000000000000000000000000|1x 
     E|-7777777777777777666666666666666600000000000000000000000000000000|
      |
      |
     Keyboard (tabbed for guitar)
     E|-10h12----12----10h12----12----10h12----------10h12-----------16\|
     B|-------10----10--------9-----9-----------------------------------|
     G|-----------------------------------------------------------------|
     D|-------------------------------------12-14-12-------12-14-12-----|
     A|-----------------------------------------------------------------|1x
     E|-----------------------------------------------------------------|


BRIDGE
Guitar 1
E|---4---5---4---4-5-4-|
B|-5---5---5---5-------|
G|---------------------|
D|---------------------|
A|---------------------|4x
E|---------------------|


Guitar 1
E|-5p4-0---5p4-0---2p0---------0---5p4-0---5p4-0---2p0---------0---|
B|-----------------------------------------------------------------|
G|---------------------2---1h2-------------------------2---1h2-----|
D|-----------------------------------------------------------------|
A|-----------------------------------------------------------------|1x
E|-----------------------------------------------------------------|
 |
 |
Guitar 2
E|-----------------------------------------------------------------|
B|-----------------------------------------------------------------|
G|-----------------------------------------------------------------|
D|-----------------------------------------------------------------|
A|-9999999944444444000000007777777799999999444444440000000022222222|1x
E|-9999999944444444000000007777777799999999444444440000000022222222|
  pm...............................................................


POST-BRIDGE
Guitar 2
E|-----------------------------------------------------------------|
B|-----------------------------------------------------------------|
G|-----------------------------------------------------------------|
D|---------------------------------------------------------0-------|
A|-777777777777777777777777777777770000000000000000000000000-------|1x 
E|-777777777777777766666666666666660000000000000000000000000-------|
  pm.......................................................


     CHORUS
     Guitar 1
     E|-----------------------------------------------------------------|
     B|-----------------------------------------------------------------|
     G|-99999999999999999999999999999999999-7-6-77777777777-7-6-7777777-|
     D|-xxxxxxxxxxxxxxxxxxxxxxxxxxxxxxxxxxx-x-x-xxxxxxxxxxx-x-x-xxxxxxx-|
     A|-77777777777777777777777777777777777-5-4-55555555555-5-4-5555555-|1x
     E|-----------------------------------------------------------------|
      |
      |
     Guitar 2
     E|-----------------------------------------------------------------|
     B|-----------------------------------------------------------------|
     G|-----------------------------------------------------------------|
     D|-----------------------------------------------------------------|
     A|-7777777777777777777777777777777700000000000000000000000000000000|1x 
     E|-7777777777777777666666666666666600000000000000000000000000000000|
 

     Guitar 1
     E|-----------------------------------------------------------------|
     B|-----------------------------------------------------------------|
     G|-99999999999999999999999999999999999-7-6-77777777777-7-6-7777777-|
     D|-xxxxxxxxxxxxxxxxxxxxxxxxxxxxxxxxxxx-x-x-xxxxxxxxxxx-x-x-xxxxxxx-|
     A|-77777777777777777777777777777777777-5-4-55555555555-5-4-5555555-|1x
     E|-----------------------------------------------------------------|
      |
      |
     Guitar 2
     E|-----------------------------------------------------------------|
     B|-----------------------------------------------------------------|
     G|-----------------------------------------------------------------|
     D|-----------------------------------------------------------------|
     A|-7777777777777777777777777777777700000000000000000000000000000000|1x 
     E|-7777777777777777666666666666666600000000000000000000000000000000|
      |
      |
     Keyboard (tabbed for guitar)
     E|-10h12----12----10h12----12----10h12----------10h12-----------16\|
     B|-------10----10--------9-----9-----------------------------------|
     G|-----------------------------------------------------------------|
     D|-------------------------------------12-14-12-------12-14-12-----|
     A|-----------------------------------------------------------------|1x
     E|-----------------------------------------------------------------|


OUTTRO
Guitar 1
E|-----------------------------------------------------------------|
B|-----------------------------------------------------------------|
G|-99999999999999999999999999999999999-7-6-77777777777-7-6-7777777-|
D|-xxxxxxxxxxxxxxxxxxxxxxxxxxxxxxxxxxx-x-x-xxxxxxxxxxx-x-x-xxxxxxx-|
A|-77777777777777777777777777777777777-5-4-55555555555-5-4-5555555-|2x
E|-----------------------------------------------------------------|
 |
 |
Guitar 2
E|-----------------------------------------------------------------|
B|-----------------------------------------------------------------|
G|-----------------------------------------------------------------|
D|-----------------------------------------------------------------|
A|-7777777777777777777777777777777700000000000000000000000000000000|2x
E|-7777777777777777666666666666666600000000000000000000000000000000|


Guitar 2
E|-----------------------------------|
B|-----------------------------------|
G|-----------------------------------|
D|-7---7---7---0000000-7---7---7~~~~~|
A|-7---7---7---0000000-7---7---7~~~~~|1x
E|-7---7---7---0000000-7---7---7~~~~~|
              pm......





10. Little Devotional_______________________________________________________


Tuning:
Guitars 1, 2, 3&4 Standard
Bass (tabbed for guitar) Standard


INTRO
Bass (tabbed for guitar)
E|-----------------------------------------------------------------|
B|-----------------------------------------------------------------|
G|-----------------------------------------------------------------|
D|-2-2-2-2-2-2-2---------2-2-2-2-2-2-2-2-2-------------------------|
A|---------------0-2-2-2-------------------4-4-4-0-------0-0-0-0-0-|1x
E|-------------------------------------------------4-4-4-----------|



Bass (tabbed for guitar)
E|-----------------------------------------------------------------|
B|-----------------------------------------------------------------|
G|-----------------------------------------------------------------|
D|-2-2-2-2-2-2-2---------2-2-2-2-2-2-2-2-2-------------------------|
A|---------------0-2-2-2-------------------4-4-4-0-------0-0-0-0-0-|1x
E|-------------------------------------------------4-4-4-----------|
 |
 |
Guitar 1
E|-----------------------------------------------------------------|
B|-----------------------------------------------------------------|
G|-9~~~~~----------------------------------------------------------|
D|-x---------------------------------------------------------------|
A|-7~~~~~----------------------------------------------------------|1x
E|---------------------------------------------------X\\\\\\\\\\\\\|



Guitar 1
E|-----4p0-7p0-4p0-----0-----0---------4p0-7p0-4p0-----0-----0-----|
B|-4/5-------------4/5---2/4---0p2-4/5-------------4/5---2/4---0p2-|
G|-----------------------------------------------------------------|
D|-----------------------------------------------------------------|
A|-----------------------------------------------------------------|2x
E|-----------------------------------------------------------------|
 |
 |
Guitar 2
E|-------------------------------------7p0-11p0-7p0----0-----0-----|
B|---------------------------------7/9-------------7/9---5/7---4/5-|
G|-----------------------------------------------------------------|
D|-----------------------------------------------------------------|
A|-----------------------------------------------------------------|2x
E|-----------------------------------------------------------------|
 |
 |
Guitar 3
E|-----------------------------------------------------------------|
B|-----------------------------------------------------------------|
G|-9-9-9-9-9-9-9-9-----------------9-9-9-9-9-9-9-9-----------------|
D|-9-9-9-9-9-9-9-9-9-9-9-9-9-9-9-9-9-9-9-9-9-9-9-9-----------------|
A|-7-7-7-7-7-7-7-7-9-9-9-9-9-9-9-9-7-7-7-7-7-7-7-7-7-7-7-7-7-7-7-7-|2x
E|-----------------7-7-7-7-7-7-7-7-----------------4-4-4-4-5-5-5-5-|


VERSE
Guitar 1
E|-------------------------------------------------------------|
B|-------------------------------------------------------------|
G|-------------------------------------------------------------|
D|-------------6-6h7p6-6-6h7p6---------------6h7p6-6-6h7p6-----|
A|-7~~~~~------------------------7~~~~~--------------------7~~~|1x
E|-------------------------------------------------------------|
 |
 |
Guitar 2
E|-------------------------------------------------------------|
B|-------------9~~~~~---10~~~~~--------9~~~~~9~~~~~---10~~~~~--|
G|-9~~~~~--------9~~~~-----9~~~~~--------------9~~~~~----9~~~~~|
D|-x-----9~~~~~------------------9~~~~~------------------------|
A|-7~~~~~------------------------------------------------------|1x
E|-------------------------------------------------------------|


Guitar 1
E|-------------------------------------------------------------|
B|-------------------------------------------------------------|
G|-------------------------------------------------------------|
D|-------------2-2h4p2-1-1h2p1-------------2-2h4p2-1-1h2p1-----|
A|-4~~~~~------------------------4~~~~~------------------------|1x
E|-------------------------------------------------------------|
 |
 |
Guitar 2
E|-------------------------------------------------------------|
B|-------------9~~~~~----7~~~~~--------9~~~~~9~~~~~----7~~~~~--|
G|-6-------9~~~~-----9~~~~~--------------9~~~~~----9~~~~~------|
D|-x----6~~~~~-------------------6~~~~~------------------------|
A|-4~~~~~------------------------------------------------------|1x
E|-------------------------------------------------------------|


     CHORUS
     Guitar 1
     E|-----------------------------------------------------------------|
     B|-----------------------------------------------------------------|
     G|-9-9-9-9-9-9-9-9\8-8-8-8/9-9-9-9-9-9-9-9-9-9-9-9\8-8-8-8/9-9-9-9-|
     D|-x-x-x-x-x-x-x-x-x-x-x-x-x-x-x-x-x-x-x-x-x-x-x-x-x-x-x-x-x-x-x-x-|
     A|-7-7-7-7-7-7-7-7\6-6-6-6/7-7-7-7-7-7-7-7-7-7-7-7\6-6-6-6/7-7-7-7-|2x
     E|-----------------------------------------------------------------|
      |
      |
     Guitar 2
     E|-----------------------------------------------------------------|
     B|-----------------------------------------------------------------|
     G|-9-9-9-9-9-9-9-9-9-9-9-9-9-9-9-9-9-9-9-9-9-9-9-9-9-9-9-9-9-9-9-9-|
     D|-x-x-x-x-x-x-x-x-x-x-x-x-x-x-x-x-x-x-x-x-x-x-x-x-x-x-x-x-x-x-x-x-|
     A|-7-7-7-7-7-7-7-7-7-7-7-7-7-7-7-7-7-7-7-7-7-7-7-7-7-7-7-7-7-7-7-7-|2x
     E|-----------------------------------------------------------------|


VERSE
Guitar 1
E|-------------------------------------------------------------|
B|-------------------------------------------------------------|
G|-------------------------------------------------------------|
D|-------------6-6h7p6-6-6h7p6---------------6h7p6-6-6h7p6-----|
A|-7~~~~~------------------------7~~~~~--------------------7~~~|1x
E|-------------------------------------------------------------|
 |
 |
Guitar 2
E|-------------------------------------------------------------|
B|-------------9~~~~~---10~~~~~--------9~~~~~9~~~~~---10~~~~~--|
G|-9~~~~~--------9~~~~-----9~~~~~--------------9~~~~~----9~~~~~|
D|-x-----9~~~~~------------------9~~~~~------------------------|
A|-7~~~~~------------------------------------------------------|1x
E|-------------------------------------------------------------|


Guitar 1
E|-------------------------------------------------------------|
B|-------------------------------------------------------------|
G|-------------------------------------------------------------|
D|-------------2-2h4p2-1-1h2p1-------------2-2h4p2-1-1h2p1-----|
A|-4~~~~~------------------------4~~~~~------------------------|1x
E|-------------------------------------------------------------|
 |
 |
Guitar 2
E|-------------------------------------------------------------|
B|-------------9~~~~~----7~~~~~--------9~~~~~9~~~~~----7~~~~~--|
G|-6-------9~~~~-----9~~~~~--------------9~~~~~----9~~~~~------|
D|-x----6~~~~~-------------------6~~~~~------------------------|
A|-4~~~~~------------------------------------------------------|1x
E|-------------------------------------------------------------|


PRE-CHORUS
Guitar 1
E|-----------------------------------------------------------------|
B|-----------------------------------------------------------------|
G|-6-6-6-6-6-6-6-6---8-8-8-8-8-8-8-9-9-9-9-9-9-9---9-9-9-9-9-9-9-9-|
D|-x-x-x-x-x-x-x-x---x-x-x-x-x-x-x-x-x-x-x-x-x-x---x-x-x-x-x-x-x-x-|
A|-4-4-4-4-4-4-4-4---6-6-6-6-6-6-6-7-7-7-7-7-7-7---7-7-7-7-7-7-7-7-|1x
E|-----------------------------------------------------------------|


Guitar 1
E|-----------------------------------------------------------------|
B|-----------------------------------------------------------------|
G|-6-6-6-6-6-6-6-6---4-4-4-4-4-4-4-2-2-2-2-2-2-2-------------------|
D|-x-x-x-x-x-x-x-x---x-x-x-x-x-x-x-x-x-x-x-x-x-x-------------------|
A|-4-4-4-4-4-4-4-4---2-2-2-2-2-2-2-0-0-0-0-0-0-0-------------------|1x
E|-----------------------------------------------0-0-0-0-0-0-0-0-0-|
                                                pm . . . . . . . .


     CHORUS
     Guitar 1
     E|-----------------------------------------------------------------|
     B|-----------------------------------------------------------------|
     G|-9-9-9-9-9-9-9-9\8-8-8-8/9-9-9-9-9-9-9-9-9-9-9-9\8-8-8-8/9-9-9-9-|
     D|-x-x-x-x-x-x-x-x-x-x-x-x-x-x-x-x-x-x-x-x-x-x-x-x-x-x-x-x-x-x-x-x-|
     A|-7-7-7-7-7-7-7-7\6-6-6-6/7-7-7-7-7-7-7-7-7-7-7-7\6-6-6-6/7-7-7-7-|2x
     E|-----------------------------------------------------------------|
      |
      |
     Guitar 2
     E|-----------------------------------------------------------------|
     B|-----------------------------------------------------------------|
     G|-9-9-9-9-9-9-9-9-9-9-9-9-9-9-9-9-9-9-9-9-9-9-9-9-9-9-9-9-9-9-9-9-|
     D|-x-x-x-x-x-x-x-x-x-x-x-x-x-x-x-x-x-x-x-x-x-x-x-x-x-x-x-x-x-x-x-x-|
     A|-7-7-7-7-7-7-7-7-7-7-7-7-7-7-7-7-7-7-7-7-7-7-7-7-7-7-7-7-7-7-7-7-|2x
     E|-----------------------------------------------------------------|


BRIDGE
Guitar 1
E|---------------------------------|
B|---------------------------------|
G|-6666-6-6666-6-66666666-6-6666-6-|
D|---------------------------------|
A|---------------------------------|2x
E|---------------------------------|
 |
 |
Guitar 2
E|-4~~~~~~~2~~~~~~~0~~~~~~~0~~~~~~~|
B|-------------------------2~~~~~~~|
G|---------------------------------|
D|---------------------------------|
A|-4~~~~~~~2~~~~~~~0~~~~~~~0~~~~~~~|2x
E|---------------------------------|


PRE-CHORUS
Guitar 1
E|-----------------------------------------------------------------|
B|-----------------------------------------------------------------|
G|-6-6-6-6-6-6-6-6---8-8-8-8-8-8-8-9-9-9-9-9-9-9---9-9-9-9-9-9-9-9-|
D|-x-x-x-x-x-x-x-x---x-x-x-x-x-x-x-x-x-x-x-x-x-x---x-x-x-x-x-x-x-x-|
A|-4-4-4-4-4-4-4-4---6-6-6-6-6-6-6-7-7-7-7-7-7-7---7-7-7-7-7-7-7-7-|1x
E|-----------------------------------------------------------------|


Guitar 1
E|-----------------------------------------------------------------|
B|-----------------------------------------------------------------|
G|-6-6-6-6-6-6-6-6---4-4-4-4-4-4-4-2-2-2-2-2-2-2-------------------|
D|-x-x-x-x-x-x-x-x---x-x-x-x-x-x-x-x-x-x-x-x-x-x-------------------|
A|-4-4-4-4-4-4-4-4---2-2-2-2-2-2-2-0-0-0-0-0-0-0-------------------|1x
E|-----------------------------------------------0-0-0-0-0-0-0-0-0-|


     CHORUS
     Guitar 1
     E|-----------------------------------------------------------------|
     B|-----------------------------------------------------------------|
     G|-9-9-9-9-9-9-9-9\8-8-8-8/9-9-9-9-9-9-9-9-9-9-9-9\8-8-8-8/9-9-9-9-|
     D|-x-x-x-x-x-x-x-x-x-x-x-x-x-x-x-x-x-x-x-x-x-x-x-x-x-x-x-x-x-x-x-x-|
     A|-7-7-7-7-7-7-7-7\6-6-6-6/7-7-7-7-7-7-7-7-7-7-7-7\6-6-6-6/7-7-7-7-|2x
     E|-----------------------------------------------------------------|
      |
      |
     Guitar 2
     E|-----------------------------------------------------------------|
     B|-----------------------------------------------------------------|
     G|-9-9-9-9-9-9-9-9-9-9-9-9-9-9-9-9-9-9-9-9-9-9-9-9-9-9-9-9-9-9-9-9-|
     D|-x-x-x-x-x-x-x-x-x-x-x-x-x-x-x-x-x-x-x-x-x-x-x-x-x-x-x-x-x-x-x-x-|
     A|-7-7-7-7-7-7-7-7-7-7-7-7-7-7-7-7-7-7-7-7-7-7-7-7-7-7-7-7-7-7-7-7-|2x
     E|-----------------------------------------------------------------|


     Guitar 1
     E|-----------------------------------------------------------------|
     B|-----------------------------------------------------------------|
     G|-9-9-9-9-9-9-9-9\8-8-8-8/9-9-9-9-9-9-9-9-9-9-9-9\8-8-8-8/9-9-9-9-|
     D|-x-x-x-x-x-x-x-x-x-x-x-x-x-x-x-x-x-x-x-x-x-x-x-x-x-x-x-x-x-x-x-x-|
     A|-7-7-7-7-7-7-7-7\6-6-6-6/7-7-7-7-7-7-7-7-7-7-7-7\6-6-6-6/7-7-7-7-|2x
     E|-----------------------------------------------------------------|
      |
      |
     Guitar 2
     E|-----------------------------------------------------------------|
     B|-----------------------------------------------------------------|
     G|-9-9-9-9-9-9-9-9-9-9-9-9-9-9-9-9-9-9-9-9-9-9-9-9-9-9-9-9-9-9-9-9-|
     D|-x-x-x-x-x-x-x-x-x-x-x-x-x-x-x-x-x-x-x-x-x-x-x-x-x-x-x-x-x-x-x-x-|
     A|-7-7-7-7-7-7-7-7-7-7-7-7-7-7-7-7-7-7-7-7-7-7-7-7-7-7-7-7-7-7-7-7-|2x
     E|-----------------------------------------------------------------|
      |
      |
     Guitar 3
     E|-----4p0-7p0-4p0-----0-----0---------4p0-7p0-4p0-----0-----0-----|
     B|-4/5-------------4/5---2/4---0p2-4/5-------------4/5---2/4---0p2-|
     G|-----------------------------------------------------------------|
     D|-----------------------------------------------------------------|
     A|-----------------------------------------------------------------|2x
     E|-----------------------------------------------------------------|
      |
      |
     Guitar 4
     E|-------------------------------------7p0-11p0-7p0----0-----0-----|
     B|---------------------------------7/9-------------7/9---5/7---4/5-|
     G|-----------------------------------------------------------------|
     D|-----------------------------------------------------------------|
     A|-----------------------------------------------------------------|2x
     E|-----------------------------------------------------------------|



OUTTRO
Guitar 1
E|---------|
B|---------|
G|-9~~~~~~~|
D|-x-------|
A|-7~~~~~~~|1x
E|---------|

 

  

11. ...Slowdance On The Inside______________________________________________


Tuning:
Guitars 1&2 Drop D
Violin (tabbed for guitar) Standard
Piano (tabbed for guitar) Standard


INTRO
Guitar 1
E|-----------------------------------------------------------------|
B|-----------------------------------------------------------------|
G|-7-7-7-7-7-7-7-7-7-7-7-7-7-7-7-7-7-7-7-7-7-7-7-7-7-7-7-7-7-7-7-7-|
D|-0-0-0-0-0-0-0-0-0-0-0-0-0-0-0-0-0-0-0-0-0-0-0-0-0-0-0-0-0-0-0-0-|
A|-5-5-5-5-5-5-5-5-5-5-5-5-5-5-5-5-5-5-5-5-5-5-5-5-5-5-5-5-5-5-5-5-|1x
E|-----------------------------------------------------------------|
 |
 |
Guitar 2
E|-----------------------------------------------------------------|
B|-----------------------------------------------------------------|
G|-----------------------------------------------------------------|
D|-----------------------------------------------------------------|
A|-----------------------------------------------------------------|1x
E|-----------------------------2-5~~~~~~~--------------------------|


Guitar 1
E|-----------------------------------------------------------------|
B|-----------------------------------------------------------------|
G|-7-7-7-7-7-7-7-7-7-7-7-7-7-7-7/9-7-7-7-7-7-7-7-7-7-7-7-7-7-7-7/9-|
D|-0-0-0-0-0-0-0-0-0-0-0-0-0-0-0-0-0-0-0-0-0-0-0-0-0-0-0-0-0-0-0-0-|
A|-5-5-5-5-5-5-5-5-5-5-5-5-5-5-----5-5-5-5-5-5-5-5-5-5-5-5-5-5-----|1x
E|-----------------------------------------------------------------|
 |
 |
Violin (tabbed for guitar)
E|-----------------------------------------------------------------|
B|-----------------------------------------------------------------|
G|-----------------------------4~~~~~~-------4~~~~~~6~~~~~~7~~~~~~~|
D|---------------4~~~~~~7~~~~~~-------7~~~~~~----------------------|
A|-5~~~~~~7~~~~~~--------------------------------------------------|1x
E|-----------------------------------------------------------------|


VERSE 1
Guitar 1
E|-----------------------------------------------------------------|
B|-----------------------------------------------------------------|
G|-7-7-7-7-7-7-7-7-7-7-7-7-7-7-7/9-7-7-7-7-7-7-7-7-7-7-7-7-7-7-7/9-|
D|-0-0-0-0-0-0-0-0-0-0-0-0-0-0-0-0-0-0-0-0-0-0-0-0-0-0-0-0-0-0-0-0-|
A|-5-5-5-5-5-5-5-5-5-5-5-5-5-5-----5-5-5-5-5-5-5-5-5-5-5-5-5-5-----|4x
E|-----------------------------------------------------------------|
 |
 |
Guitar 2
E|-----------------------------------------------------------------|
B|-----------------------------------------------------------------|
G|-----------------------------------------------------------------|
D|-----------------------------------------------------------------|
A|-----------------------------------------------------------------|4x
E|-----------------------------2-5~~~~~~~--------------------------|


PRE-CHORUS
Guitar 1
E|-------------------|
B|-------------------|
G|-7~~~~~~~7~~~~~7-7-|
D|-7~~~~~~~7~~~~~x-x-|
A|-5~~~~~~~5~~~~~5-5-|1x
E|-0~~~~~~~0~~~~~0-0-|
 |
 |
Guitar 2
E|-------------------|
B|-------------------|
G|-------------------|
D|-------------------|
A|-------------------|1x
E|-------------X\\\\\|


     CHORUS
     Guitar 1
     E|-----------------------------------------------------------------|
     B|-----------------------------------------------------------------|
     G|-7-7-7-7-7-7-7-7-7-7-7-7-7-7-7-7---------------------------------|
     D|-7-7-7-7-7-7-7-7-7-7-7-7-7-7-7-7-5-5-5-5-5-5-5-5-5-5-5-5-5-5-5-5-|
     A|-5-5-5-5-5-5-5-5-5-5-5-5-5-5-5-5-5-5-5-5-5-5-5-5-5-5-5-5-5-5-5-5-|>
     E|-0-0-0-0-0-0-0-0-0-0-0-0-0-0-0-0-5-5-5-5-5-5-5-5-5-5-5-5-5-5-5-5-|
      |
      |     
     Piano (tabbed for guitar)
     E|---------------------------------5-----------5-------------------|
     B|-7-------7-------8-------7-------x-----------x---8-------7-------|
     G|-x-------x-------x-------x-------2-----------2---x-------x-------|
     D|-4-------4-------5-------4-------0-----------0---5-------4-------|
     A|-----------------------------------------------------------------|>
     E|-----------------------------------------------------------------|


     Guitar 1
     E|-----------------------------------------------------------------|
     B|-----------------------------------------------------------------|
     G|-----------------------------------------------------------------|
     D|-7-7-7-7-7-7-7-7-7-7-7-7-7-7-7-7-5-5-5-5-5-5-5-5-5-5-5-5-5-5-5-5-|
     A|-7-7-7-7-7-7-7-7-7-7-7-7-7-7-7-7-5-5-5-5-5-5-5-5-5-5-5-5-5-5-5-5-|2x
     E|-7-7-7-7-7-7-7-7-7-7-7-7-7-7-7-7-5-5-5-5-5-5-5-5-5-5-5-5-5-5-5-5-|
      |
      |     
     Piano (tabbed for guitar)
     E|-----------------------------------------------------------------|
     B|-8-------8-------7-------5-------3---------------3---------------|
     G|-x-------x-------x-------x-------x---------------x---------------|
     D|-5-------5-------4-------2-------0---------------0---------------|
     A|-----------------------------------------------------------------|2x
     E|-----------------------------------------------------------------|


VERSE 2
Guitar 1
E|----------------------------------------------------------------------|
B|----------------------------------------------------------------------|
G|----------0-0-0-0-0-0-0-0-0-0-7----------------------0-0-0-0-0-0--7---|
D|-4b~~~~~~~-4-4-4-4-4-4-4-4-4-4--7-4b~~~~~~2---0-2/4-0-4-4-4-4-4-4---7-|
A|----------------------------------------------------------------------|>
E|----------------------------------------------------------------------|
               pm...............
 |
 |
Guitar 2
E|----------------------------------------------------------------------|
B|----------------------------------------------------------------------|
G|----------------------------------------------------------------------|
D|-----------77777777-5~~~~~4~~~~~---------------77777777-5~~~~~4~~~~~--|
A|-5~~~~7~~~~--------------------------5~~~~7~~~~-----------------------|>
E|----------------------------------------------------------------------|


(cont.)
E|-------------------------------------------------|
B|-----------------7~~\3-------------------7~~\3---|
G|-4-------6---7---------------6-------7-----------|
D|-----4h5-----------------4h5-----4h5-------------|
A|-------------------------------------------------|1x
E|-------------------------------------------------|
 |
 |
(cont.)
E|-------------------------------------------------|
B|-------------------------------------------------|
G|-------------------------------------------------|
D|-------------------------------------------------|
A|-2~~~~~~~0~~~~~~~--------2~~~~~~~0~~~~~~~--------|1x
E|-----------------5~~~~~~~----------------5~~~~~~~|


PRE-CHORUS
Guitar 1
E|-------------------|
B|-------------------|
G|-7~~~~~~~7~~~~~7-7-|
D|-7~~~~~~~7~~~~~x-x-|
A|-5~~~~~~~5~~~~~5-5-|1x
E|-0~~~~~~~0~~~~~0-0-|
 |
 |
Guitar 2
E|-------------------|
B|-------------------|
G|-------------------|
D|-------------------|
A|-------------------|1x
E|-------------X\\\\\|


     CHORUS
     Guitar 1
     E|-----------------------------------------------------------------|
     B|-----------------------------------------------------------------|
     G|-7-7-7-7-7-7-7-7-7-7-7-7-7-7-7-7---------------------------------|
     D|-7-7-7-7-7-7-7-7-7-7-7-7-7-7-7-7-5-5-5-5-5-5-5-5-5-5-5-5-5-5-5-5-|
     A|-5-5-5-5-5-5-5-5-5-5-5-5-5-5-5-5-5-5-5-5-5-5-5-5-5-5-5-5-5-5-5-5-|>
     E|-0-0-0-0-0-0-0-0-0-0-0-0-0-0-0-0-5-5-5-5-5-5-5-5-5-5-5-5-5-5-5-5-|
      |
      |     
     Piano (tabbed for guitar)
     E|---------------------------------5-----------5-------------------|
     B|-7-------7-------8-------7-------x-----------x---8-------7-------|
     G|-x-------x-------x-------x-------2-----------2---x-------x-------|
     D|-4-------4-------5-------4-------0-----------0---5-------4-------|
     A|-----------------------------------------------------------------|>
     E|-----------------------------------------------------------------|


     Guitar 1
     E|-----------------------------------------------------------------|
     B|-----------------------------------------------------------------|
     G|-----------------------------------------------------------------|
     D|-7-7-7-7-7-7-7-7-7-7-7-7-7-7-7-7-5-5-5-5-5-5-5-5-5-5-5-5-5-5-5-5-|
     A|-7-7-7-7-7-7-7-7-7-7-7-7-7-7-7-7-5-5-5-5-5-5-5-5-5-5-5-5-5-5-5-5-|3x
     E|-7-7-7-7-7-7-7-7-7-7-7-7-7-7-7-7-5-5-5-5-5-5-5-5-5-5-5-5-5-5-5-5-|
      |
      |     
     Piano (tabbed for guitar)
     E|-----------------------------------------------------------------|
     B|-8-------8-------7-------5-------3---------------3---------------|
     G|-x-------x-------x-------x-------x---------------x---------------|
     D|-5-------5-------4-------2-------0---------------0---------------|
     A|-----------------------------------------------------------------|3x
     E|-----------------------------------------------------------------|


     Guitar 1
     E|-----------------------------------------------------------------|
     B|-----------------------------------------------------------------|
     G|-7-7-7-7-7-7-7-7-7-7-7-7-7-7-7-7---------------------------------|
     D|-7-7-7-7-7-7-7-7-7-7-7-7-7-7-7-7-5-5-5-5-5-5-5-5-5-5-5-5-5-5-5-5-|
     A|-5-5-5-5-5-5-5-5-5-5-5-5-5-5-5-5-5-5-5-5-5-5-5-5-5-5-5-5-5-5-5-5-|>
     E|-0-0-0-0-0-0-0-0-0-0-0-0-0-0-0-0-5-5-5-5-5-5-5-5-5-5-5-5-5-5-5-5-|
      |
      |     
     Piano (tabbed for guitar)
     E|---------------------------------5-----------5-------------------|
     B|-7-------7-------8-------7-------x-----------x---8-------7-------|
     G|-x-------x-------x-------x-------2-----------2---x-------x-------|
     D|-4-------4-------5-------4-------0-----------0---5-------4-------|
     A|-----------------------------------------------------------------|>
     E|-----------------------------------------------------------------|


     Guitar 1
     E|-----------------------------------------------------------------|
     B|-----------------------------------------------------------------|
     G|-----------------------------------------------------------------|
     D|-7-7-7-7-7-7-7-7-7-7-7-7-7-7-7-7-5-5-----5-5-----5-5-----5-5-----|
     A|-7-7-7-7-7-7-7-7-7-7-7-7-7-7-7-7-5-5-----5-5-----5-5-----5-5-----|1x
     E|-7-7-7-7-7-7-7-7-7-7-7-7-7-7-7-7-5-5-----5-5-----5-5-----5-5-----|
      |
      |     
     Piano (tabbed for guitar)
     E|-----------------------------------------------------------------|
     B|-8-------8-------7-------5-------3-------------------------------|
     G|-x-------x-------x-------x-------x-------------------------------|
     D|-5-------5-------4-------2-------0-------------------------------|
     A|-----------------------------------------------------------------|1x
     E|-----------------------------------------------------------------|


     Guitar 1
     E|-----------------------------------------------------------------|
     B|-----------------------------------------------------------------|
     G|-7-7-7-7-7-7-7-7-7-7-7-7-7-7-7-7---------------------------------|
     D|-7-7-7-7-7-7-7-7-7-7-7-7-7-7-7-7-5-5-5-5-5-5-5-5-5-5-5-5-5-5-5-5-|
     A|-5-5-5-5-5-5-5-5-5-5-5-5-5-5-5-5-5-5-5-5-5-5-5-5-5-5-5-5-5-5-5-5-|>
     E|-0-0-0-0-0-0-0-0-0-0-0-0-0-0-0-0-5-5-5-5-5-5-5-5-5-5-5-5-5-5-5-5-|
      |
      |     
     Piano (tabbed for guitar)
     E|---------------------------------5-----------5-------------------|
     B|-7-------7-------8-------7-------x-----------x---8-------7-------|
     G|-x-------x-------x-------x-------2-----------2---x-------x-------|
     D|-4-------4-------5-------4-------0-----------0---5-------4-------|
     A|-----------------------------------------------------------------|>
     E|-----------------------------------------------------------------|


     Guitar 1
     E|-----------------------------------------------------------------|
     B|-----------------------------------------------------------------|
     G|-----------------------------------------------------------------|
     D|-7-7-7-7-7-7-7-7-7-7-7-7-7-7-7-7-5-5-5-5-5-5-5-5-5-5-5-5-5-5-5-5-|
     A|-7-7-7-7-7-7-7-7-7-7-7-7-7-7-7-7-5-5-5-5-5-5-5-5-5-5-5-5-5-5-5-5-|1x
     E|-7-7-7-7-7-7-7-7-7-7-7-7-7-7-7-7-5-5-5-5-5-5-5-5-5-5-5-5-5-5-5-5-|
      |
      |     
     Piano (tabbed for guitar)
     E|-----------------------------------------------------------------|
     B|-8-------8-------7-------5-------3---------------3---------------|
     G|-x-------x-------x-------x-------x---------------x---------------|
     D|-5-------5-------4-------2-------0---------------0---------------|
     A|-----------------------------------------------------------------|1x
     E|-----------------------------------------------------------------|


     Guitar 1
     E|-----------------------------------------------------------------|
     B|-----------------------------------------------------------------|
     G|-7-7-7-7-7-7-7-7-7-7-7-7-7-7-7-7---------------------------------|
     D|-7-7-7-7-7-7-7-7-7-7-7-7-7-7-7-7-5-5-5-5-5-5-5-5-5-5-5-5-5-5-5-5-|
     A|-5-5-5-5-5-5-5-5-5-5-5-5-5-5-5-5-5-5-5-5-5-5-5-5-5-5-5-5-5-5-5-5-|>
     E|-0-0-0-0-0-0-0-0-0-0-0-0-0-0-0-0-5-5-5-5-5-5-5-5-5-5-5-5-5-5-5-5-|
      |
      |     
     Piano (tabbed for guitar)
     E|---------------------------------5-----------5-------------------|
     B|-7-------7-------8-------7-------x-----------x---8-------7-------|
     G|-x-------x-------x-------x-------2-----------2---x-------x-------|
     D|-4-------4-------5-------4-------0-----------0---5-------4-------|
     A|-----------------------------------------------------------------|>
     E|-----------------------------------------------------------------|


     Guitar 1
     E|-----------------------------------------------------------------|
     B|-----------------------------------------------------------------|
     G|-----------------------------------------------------------------|
     D|-7-7-7-7-7-7-7-7-7-7-7-7-7-7-7-7-5-5-----5-5-----5-5-----5-5-----|
     A|-7-7-7-7-7-7-7-7-7-7-7-7-7-7-7-7-5-5-----5-5-----5-5-----5-5-----|1x
     E|-7-7-7-7-7-7-7-7-7-7-7-7-7-7-7-7-5-5-----5-5-----5-5-----5-5-----|
      |
      |     
     Piano (tabbed for guitar)
     E|-----------------------------------------------------------------|
     B|-8-------8-------7-------5-------3-------------------------------|
     G|-x-------x-------x-------x-------x-------------------------------|
     D|-5-------5-------4-------2-------0-------------------------------|
     A|-----------------------------------------------------------------|1x
     E|-----------------------------------------------------------------|


OUTTRO
Guitar 1
E|---------
B|---------
G|-7~~~~~~~
D|-7~~~~~~~
A|-5~~~~~~~fade
E|-0~~~~~~~
Comments