Taking Back Sunday - Up Against Chords & Tabs

 

Up Against Chords & Tabs

Taking Back Sunday Chords & Tabs

Version: 1 Type: Tab

Up Against Tab

this is my first tab so yeah......the only part im not
really sure about is the end of the verse but it sounds good.

intro
E|-------------------------------------------------|
B|-------------------------------------------------|
G|-------------------------------------------------|
D|-------11---10-----------6---8-----4-4(x4)-------|
A|----8-----8-----8------6---6-------4-4-----------|
E|-6-------------------4-------------2-2-----------| (x2)
p.m.____________________________


E|-----14|
B|---14--|
G|-13----|
D|-------|
A|-------|
E|-------|

chorus
E|-------------------------------------------------|
B|-------------------------------------------------|
G|-------------------------------------------------|
D|-8(x3)-6(x3)-3(x3)-4(x3)-44-44-44-44-------------|
A|-8-----6-----3-----4-----44-44-44-44-------------|
E|-6-----4-----1-----2-----22-22-22-22-------------| (x4)

verse
E|----|
B|----|
G|-3--|
D|-x--|
A|-1--|
E|----|

E|-------------|
B|-------------|
G|-----------6-|
D|---6---6---x-|
A|--4---4----4-|
E|-2---2-------| (x3)


E|-------------------------------|
B|-------------------------------|
G|-----------6-/-8-/(x4)-10(x3)--|
D|--8--------x---x-------x-------|
A|---9-------4-/-6-/-----8-------|
E|-7-----------------------------|

play chorus and verse again


interlude
[ Tab from: http://www.guitartabs.cc/tabs/t/taking_back_sunday/up_against_tab.html ]
E|-----14-------13-------------|
B|---14-----------14--11-------|
G|-13---------------13---------|
D|-----------------------------|
A|-----------------------------|
E|-----------------------------|

E|----------------------------------------------------------------------|
B|----------------------------------------------------------------------|
G|-------10-10-10--8-8-8--6-6-6----------10-10-10--8-8-8--9-9-9---------|
D|--8-8-8--------------------------8-8-8--------------------------------|
A|----------------------------------------------------------------------|
E|----------------------------------------------------------------------
p.m. all notes                                                       (x4)


E|-------------------------------------------------|
B|-------------------------------------------------|
G|-------------------------------------------------|
D|-------11---10-----------6---8-----4-4(x4)-------|
A|----8-----8-----8------6---6-------4-4-----------|
E|-6-------------------4-------------2-2-----------| (x2)
p.m.____________________________



and then end with the chorus
E|-------------------------------------------------|
B|-------------------------------------------------|
G|-------------------------------------------------|
D|-8(x3)-6(x3)-3(x3)-4(x3)-44-44-44-44-------------|
A|-8-----6-----3-----4-----44-44-44-44-------------|
E|-6-----4-----1-----2-----22-22-22-22-------------| (x4)