Taking Back Sunday - Union Chords & Tabs

 

Union Chords & Tabs

Taking Back Sunday Chords & Tabs

Version: 1 Type: Tab 0 ratings
1 star 2 stars 3 stars 4 stars 5 stars
comments

Union Tab

this song kicks ass.  and eddie is using a cool effect. if you want to know what
it is.  write in the forums or something and i'll try to e mail what iti s to you
when i find out. the rhythm is extremely simple. how could people skip it?

Tabbed by: powerchord
Tuning: Standard

Guitar 1:

Intro/Verse(after pick slide):

e---------------------------------------------|
b---------------------------------------------|
g--4-4-4-4-4----------------------------------|
d--------------etc.---------------------------|
a--2-2-2-2-2----------------------------------|
e---------------------------------------------|

e---------------------------------------------|
b---------------------------------------------|
g---------------------------------------------|
d-5-5-5-5-------------------------------------|
a-3-3-3-3--etc.-------------------------------|
e-3-3-3-3-------------------------------------|


e---------------------------------------------|
b---------------------------------------------|
g--4-4-4-4-4----------------------------------|
d--------------etc.-5------7-----8------------|
a--2-2-2-2-2--------3-etc.-5-x16-5------------|
e-------------------3------5-----5------------|

Prechorus:
(clean)
e---------------------------------------------|
b-3---x-x--5-x--5/7---x-0---------------------|
g-4---x-x--6-x--6/7---x-0---------------------|
d---------------------------------------------|
a---------------------------------------------|
e---------------------------------------------|

[ Tab from: http://www.guitartabs.cc/tabs/t/taking_back_sunday/union_tab.html ]
Chorus:
(dist.)
e---------------------------------------------|
b--3---x8---5-x4--7-x-4-0-x--16---------------|
g--4--------6-----7-----0---------------------|
d---------------------------------------------|
a---------------------------------------------|
e---------------------------------------------|


eddie's part: (hard to hear)

e-19---------19------19- 17-----17-------17--15------15----15------|
b-------19--------19---------17------17-----------15-----15--------|
g---16----------16-------14-------14-----------12------12----------|
d------------------------------------------------------------------|
a------------------------------------------------------------------|
e------------------------------------------------------------------|

Post-chorus  (this part is tricky, may not be right, sliding isnt vital)
e--------------------17/14-x-17/14-17 x-x-17/14--17/14--19---------|
b------------------------------------------------------------------|
g--4------4----------16-16-x-16-16-16-x-x-16-16--16-16--16---------|
d----x16-----x16---------------------------------------------------|
a--2------2--------------------------------------------------------|
e------------------------------------------------------------------|


Bridge:

e---------------------------------------------|
b---------------------------------------------|
g---------------------------------------------|
d--9-9-x-9-9-9-x-9-9-9-x-9-9-9-x-9------------|
a--9-9-x-9-9-9-x-9-9-9-x-9-9-9-x-9------------|
e--7-7-x-7-7-7-x-7-7-7-x-7-7-7-x-7------------|

Eddie's part:

e-----19~---17~--15~---14~-----------------------------|
b-16------16---16----16--------------------------------|
g------------------------------------------------------|
d------------------------------------------------------|
a------------------------------------------------------|
e------------------------------------------------------|
that's about it! you're welcome!
Comments